» » »

Footsteps Tabs (ver.2)

Artists:  A B C D E F G H I J K L M N O P Q R S T U V W X Y Z # 

Footsteps Tabs (ver.2)

Pearl Jam
Rating:
0/5 (0 votes)

Hard to play? Try these video lessons and learn fast.
                I listened to footsteps a few hundred times and finally cameup with an
incredibly sucky piece of cr*p transcription almost worth putting on
here..
Like I said it sucks..and I didn't bother to get all the chords for the in
between parts of the song
but here's the intro and little mini-chorus.. besides..maybe someone
seeing how miserably I failed will trasncribe 
it better...just listen to it to get the timing..be creative..
what the hell I'll throw in a little yellow ledbetter tab too..     

                      FOOTSTEPS by Pearl Jam
                     music by Stone Gossard
                     lyrics by Eddie Vedder  
              (Times of Trouble on Temple of The Dog CD)


                                     C  Cadd9     Em
e:-----------------------------------0---0---0---1------------------------
-
B:-----------------------------------1---3---3---2------------------------
--
G:-------------0---------------------0---0---0---2------------------------
--
D:----------------2---Repeat-then----2---2--------------------------------
--
A:----------------2------------------3---3--------------------------------
--
E:0--1--H--3-------------------------0---0--------------------------------
--


                                  
                           

                                         heres the beginning for the solo
e:---------------------12\10---blah-blah----------------------------------
--
B:------------------------------------------------------12----------------
--
G:----------------9---------------------------------9------11---9---------
--
D:-----9--H--11---9-------------------------9---11-----------------11----9
--
A:-----9--H--11-----------------------------------------------------------
--
E:0-----------------------------------------------------------------------
--


                                                                      


e:---------------------------------------------------------------------|
B:----------------------------------------------------12-14-12-14-12---|
G:------------------------------------etc-etc-end-on-------------------|
D:---------------------------9---11------------------------------------|
A:11---9---7------7-----7--9-------------------------------------------|
E:-----------8------8--------------------------------------------------|


This is just the intro..and the solo.. I have no patience so I'm not going
to tab it all down...I've only been playing about 7 months and I've
figured out most of the song
in about 2 of those months..just listen and play alot or you can just play
the chords
while listning to the song to get a good feel.. 
 
    E  open strings    B(Bm)  A    E    

e:  0       0          3(7)   0    0 
B:  0       0          5(7)   2    0  repeat through out verses
G:  1       0          5(8)   2    1
D:  2       0          5(8)   2    2
A:  2       0          3(9)        2
E:                      (7)


I usually play Bm but B will do..
just listen and practice alot..
If you can hunt me down..I know alot of PJ songs..
and if ya want tab and ya catch me in a good mood I'll
rush it right over to ya.. 
Doc..aka Ice..aka Val..aka Matt
nicknames cause my name address is constantly changing..
Later y'all..
   Doc
            
Hard to play? Try these video lessons and learn fast. | Correct




comments powered by Disqus
↑ Back to top | Tablatures and chords are parodies/interpretations of the original songs. You may use it for private study, scholarship, research or language learning purposes only