>
 >
Footsteps

Footsteps Guitar Tabs

Pearl Jam - Footsteps chords, tabs, tablatures, lyrics

Guitar lessons | Add/correct | Request | Top 50 tabs Artists:  A B C D E F G H I J K L M N O P Q R S T U V W X Y Z 0-9

Footsteps Guitar Tabs – Pearl Jam

CD, Sheet music, Poster

Do you like Footsteps? Share with your friends now
TabsTabs v2
Footsteps                                     
                     Tempo 60 bpm, © by Pearl Jam


Here is the full version of this song as it is played in the studio version...
It is not so difficult to play, playing AND singing is the problem. Lyrics
are already on this server ! 

                                                                            
D#||---------------------|-------------------------|-----------------------|
A#||---------------------|-------------------------|-----------------------|
F#||---------------------|------0---0--------0--0--|------0---0------------|
C#||---------------------|-------------------------|-----------------------|
G#||---------------------|-------------------------|-----------------------|
D#||--------------3-3--3-|--1h3-------1~-----------|--1h3-------1~---------|


                                                                             
------------------------|---------------------------|-----------------------|
------------------------|---------------------------|-----------------------|
------0--0-0------------|------0----0--------0-0--0-|------0----------0-----|
------------------------|--------------------0-0--0-|--------------------0--|
------------------------|---------------------------|-----------------------|
--1h3--------1~---------|--1h3---3----1~------------|--1h3------------------|


                                                                              
-------------------------|-------------------------|-------------------------|
-------------------------|-------------------------|-------------------------|
------0--0-0-----------0-|------0--0-0-----------0-|------0---0--------0--0--|
-------------------------|-------------------------|-------------------0--0--|
-------------------------|-------------------------|-------------------------|
--1h3--------1~----------|--1h3--------1~----------|--1h3-------1~-----------|


                                                                             
------------------------|-------------------------|-------------------------|
------------------------|-------------------------|-------------------------|
------0---0-------------|------0---0--------0-----|------0---0--------0-----|
---------------------0--|----------------------0--|----------------------0--|
------------------------|-------------------------|-------------------------|
--1h3-------1~----------|--1h3-------1~-----------|--1h3-------1~-----------|


                                                         
-----------------------------|--------------------------|
-----------------------------|--1--3--3--3----3---3-3---|
------0----0-----0--0-0-0----|--0--0--0--0----0---0-0-0-|
-----------------0--0-0-0-0--|--2--2--2/-4----4---4-4-4\|
--------------------------0--|--3--3--3/-5------------5\|
--1h3---3----1---------------|--------------------------|


                                                                              
--------------------------|-------------------------|------------------------|
--1---1-1/-3----3---3-3---|--1--3--3/-3------3-3----|--0---0-0--1------------|
--0---0-0--0----0---0-0-0-|--0--0--0--0------0-0-0--|--x---x-x--0--------0---|
--2---2-2/-4----4---4-4-4\|--2--2--2/-4------4-4-4\-|--2---2-2--2------------|
--3---3-3/-5------------5\|--3--3--3/-5----------5\-|--2---2-2--3------------|
--------------------------|-------------------------|--0---0-0-------------3-|


                                                                               
-------------------------|-------------------------|--------------------------|
-------------------------|-------------------------|--------------------------|
------0---0--------0-----|------0---0--------0--0--|------0--0-0--------0-----|
----------------------0--|-------------------------|---------0-0-----------0--|
-------------------------|-------------------------|--------------------------|
--1h3-------1~-----------|--1h3-------1~-----------|--1h3--------1~-----------|


                                                       
---------------------------|--------------------------|
---------------------------|--------------------------|
------0----0--------0-0----|------0--0-0----------0-0-|
--------------------0-0-0--|----------------------0-0-|
------------------------0--|--------------------------|
--1h3---3----1-------------|--1h3--------1~-----------|


                                                    
-------------------------|-------------------------|
-------------------------|-------------------------|
------0---0----------0---|------0---0----------0---|
-----------------------0-|-----------------------0-|
-------------------------|-------------------------|
--1h3-------1~-----------|--1h3-------1~-----------|


                                                         
-----------------------------|--------------------------|
-----------------------------|--1--3--3--3----3---3-3---|
------0--0-0-----0--0-0-0----|--0--0--0--0----0---0-0-0-|
---------0-0-----0--0-0-0-0--|--2--2--2/-4----4---4-4-4\|
--------------------------0--|--3--3--3/-5------------5\|
--1h3--------1---------------|--------------------------|


                                                                               
--------------------------|-------------------------|-------------------------|
--1---1-1/-3----3---3-3---|--1--3--3/-3------3-3----|--0---0-0--1------1--1---|
--0---0-0--0----0---0-0-0-|--0--0--0--0------0-0-0--|--x---x-x--0------0--0-0-|
--2---2-2/-4----4---4-4-4\|--2--2--2/-4------4-4-4\-|--2---2-2--2------2--2-2-|
--3---3-3/-5------------5\|--3--3--3/-5----------5\-|--2---2-2--3-----------3-|
--------------------------|-------------------------|--0---0-0----------------|


                                                                                
--------------------------|--------------------------|-------------------------|
--1--3--3--3----3---3-3---|--1---1-1/-3----3---3-3---|--1--3--3/-3------3-3----|
--0--0--0--0----0---0-0-0-|--0---0-0--0----0---0-0-0-|--0--0--0--0------0-0-0--|
--2--2--2/-4----4---4-4-4\|--2---2-2/-4----4---4-4-4\|--2--2--2/-4------4-4-4\-|
--3--3--3/-5------------5\|--3---3-3/-5------------5\|--3--3--3/-5----------5\-|
--------------------------|--------------------------|-------------------------|


                                                       
---------------------------|--------------------------|
--0---0-0--1---1--1-1-1----|--0---0-0-------0---0-0-0-|
--x---x-x--0---0--0-0-0-0--|--0---0-0-------0---0-0-0-|
--2---2-2--2---2--2-2-2-2--|--2---2-2-------2---2-2-2-|
--2---2-2--3------------3--|--2---2-2-------2---------|
--0---0-0------------------|--0---0-0--2b-------------|


                                                        
--3---------0---0--0-0-0-0-0-|-------------------------|
--0---0-0-0-2---2--2-2-2-2-2-|--0---0-0-------0----0-0-|
--0---0-0-0-2---2--2-2-2-2-2-|--0---0-0-------0----0-0-|
--0---0-0-0-2---2--2-2-2-2-2-|--2---2-2-------2----2-2-|
--2---2-2-2-0---0------0-0-0-|--2---2-2-------2--------|
--3---3-3-3------------------|--0---0-0--2b------------|


                                                         
--3---------0---0--0-0-0-0-0-|--------------------------|
--0---0-0-0-2---2--2-2-2-2-2-|--0---0-0-------0---0-0-0-|
--0---0-0-0-2---2--2-2-2-2-2-|--0---0-0-------0---0-0-0-|
--0---0-0-0-2---2--2-2-2-2-2-|--2---2-2-------2---2-2-2-|
--2---2-2-2-0---0------0-0-0-|--2---2-2-------2---------|
--3---3-3-3------------------|--0---0-0--2b-------------|


                                                         
--3---------0---0--0-0-0-0-0-|--------------------------|
--0---0-0-0-2---2--2-2-2-2-2-|--0---0-0-------0---0-0-0-|
--0---0-0-0-2---2--2-2-2-2-2-|--0---0-0-------0---0-0-0-|
--0---0-0-0-2---2--2-2-2-2-2-|--2---2-2-------2---2-2-2-|
--2---2-2-2-0---0------0-0-0-|--2---2-2-------2---------|
--3---3-3-3------------------|--0---0-0--2b-------------|


                                                                               
--3---------0------------|------------------------|---------------------------|
--0---0-0-0-2------------|------------------------|---------------------------|
--0---0-0-0-2--------0---|------0---0-------------|------0---0--------0-0-0-0-|
--0---0-0-0-2----------0-|----------------------0-|-------------------0-0-0-0-|
--2---2-2-2-0------------|------------------------|---------------------------|
--3---3-3-3--------------|--1h3-------1~----------|--1h3-------1--------------|


                                                         
--------------------------|-----------------------------|
--------------------------|-----------------------------|
------0--0-0--------0-----|------0----0-----0--0-0-0----|
---------0-0-----------0--|-----------0-----0--0-0-0-0--|
--------------------------|--------------------------0--|
--1h3--------1~-----------|--1h3---3----1---------------|


                                                      
--------------------------|--------------------------|
--1--3--3--3----3---3-3---|--1---1-1/-3----3---3-3---|
--0--0--0--0----0---0-0-0-|--0---0-0--0----0---0-0-0-|
--2--2--2/-4----4---4-4-4\|--2---2-2/-4----4---4-4-4\|
--3--3--3/-5------------5\|--3---3-3/-5------------5\|
--------------------------|--------------------------|


                                                       
--------------------------|---------------------------|
--1--3--3/-3----3---3-3---|--0---0-0--1---1---1-1-----|
--0--0--0--0----0---0-0-0-|--x---x-x--0---0---0-0-0-0-|
--2--2--2/-4----4---4-4-4\|--2---2-2--2---2---2-2-2-2-|
--3--3--3/-5------------5\|--2---2-2--3-----------3-3-|
--------------------------|--0---0-0------------------|


                                                      
--------------------------|--------------------------|
--1--3--3--3----3---3-3---|--1---1-1/-3----3---3-3---|
--0--0--0--0----0---0-0-0-|--0---0-0--0----0---0-0-0-|
--2--2--2/-4----4---4-4-4\|--2---2-2/-4----4---4-4-4\|
--3--3--3/-5------------5\|--3---3-3/-5------------5\|
--------------------------|--------------------------|


                                                       
--------------------------|---------------------------|
--1--3--3/-3----3---3-3---|--0---0-0--1---1--1-1-1----|
--0--0--0--0----0---0-0-0-|--x---x-x--0---0--0-0-0-0--|
--2--2--2/-4----4---4-4-4\|--2---2-2--2---2--2-2-2-2--|
--3--3--3/-5------------5\|--2---2-2--3------------3--|
--------------------------|--0---0-0------------------|


                                                         
--------------------------|--3---------0---0--0-0-0-0-0-|
--0---0-0-------0---0-0-0-|--0---0-0-0-2---2--2-2-2-2-2-|
--0---0-0-------0---0-0-0-|--0---0-0-0-2---2--2-2-2-2-2-|
--2---2-2-------2---2-2-2-|--0---0-0-0-2---2--2-2-2-2-2-|
--2---2-2-------2---------|--2---2-2-2-0---0------0-0-0-|
--0---0-0--2b-------------|--3---3-3-3------------------|


                                                         
--------------------------|--3---------0---0--0-0-0-0-0-|
--0---0-0-------0---0-0-0-|--0---0-0-0-2---2--2-2-2-2-2-|
--0---0-0-------0---0-0-0-|--0---0-0-0-2---2--2-2-2-2-2-|
--2---2-2-------2---2-2-2-|--0---0-0-0-2---2--2-2-2-2-2-|
--2---2-2-------2---------|--2---2-2-2-0---0------0-0-0-|
--0---0-0--2b-------------|--3---3-3-3------------------|


                                                         
--------------------------|--3---------0---0--0-0-0-0-0-|
--0---0-0-------0---0-0-0-|--0---0-0-0-2---2--2-2-2-2-2-|
--0---0-0-------0---0-0-0-|--0---0-0-0-2---2--2-2-2-2-2-|
--2---2-2-------2---2-2-2-|--0---0-0-0-2---2--2-2-2-2-2-|
--2---2-2-------2---------|--2---2-2-2-0---0------0-0-0-|
--0---0-0--2b-------------|--3---3-3-3------------------|


                                                                               
--------------------------|--3--------0-------------|-------------------------|
--0---0-0-----------------|--0---0-0--2-------------|-------------------------|
--0---0-0-----------0-0-0-|--0---0-0--2-------------|------0---0----------0-0-|
--2---2-2-------2---2-2-2-|--0---0-0--2-------------|---------------------0-0-|
--2---2-2-------2---------|--2---2-2--0-------------|-------------------------|
--0---0-0--2b-------------|--3---3-3---------3-3--3-|--1h3-------1~-----------|


                                                                          
-------------------------|--------------------------|-------------------||
-------------------------|--------------------------|-------------------||
------0---0--------0--0--|------0---0-------0-0--0--|--0----------------||
-------------------0--0--|----------0---------0--0--|--0----------------||
-------------------------|--------------------------|-------------------||
--1h3-------1------------|--1h3-------1-------------|--3----------------||





Comments


Popular Pearl Jam tabs & chords
Present Tense Bass Tabs
Alive Chords
Rocking In The Free World Chords
Sirens 3 Chords
Last Kiss Drum Tabs
Baba O'riley Tabs
Elderly Woman 2 Tabs
Face Of Love Tabs
Habit 1 Tabs
Oceans Ukulele


Song lyrics



↑ Back to top | Tablatures and chords are parodies/interpretations of the original songs. You may use it for private study, scholarship, research or language learning purposes only
© 2014 AZChords.com Contact us | Privacy policy | DMCA | Add/correct tabs | Request tabs | Top 50 tabs