» » »

Every Day People Tabs (ver.1)

Artists:  A B C D E F G H I J K L M N O P Q R S T U V W X Y Z # 

Every Day People Tabs (ver.1)

Pearl Jam
Rating:
0/5 (0 votes)

Hard to play? Try these video lessons and learn fast.
                Easy but cool song to play.

Intro 
|--3--------------------------------------------------------------------
|--3--------------------------------------------------------------------
|--4--------------------------------------------------------------------
|--5--------------------------------------------------------------------
|--5--------------------------------------------------------------------
|--3--------------------------------------------------------------------

Whole Song
|--3-----3--------------------------------------------------------------
|--3-----3--------------------------------------------------------------
|--4--5--4--------------------------------------------------------------
|--5--5--5--------------------------------------------------------------
|--5--3--5--------------------------------------------------------------
|--3-----3--------------------------------------------------------------

Riff at 02:48
|--3--------------------------------------------------------------------
|--3--------------------------------------------------------------------
|--4--------------------------------------------------------------------
|--5----12h1412v--------------------------------------------------------
|--5--------------------------------------------------------------------
|--3--------------------------------------------------------------------

Riff at the end
|--3-----------------------3------------15------------------------------
|--3-----------------------3--------/15---------------------------------
|--4-----------------------4--------------------------------------------
|--5----12h1412------------5--------------------------------------------
|--5-------------14-12/10--5--------------------------------------------
|--3-----------------------3--------------------------------------------
            
Hard to play? Try these video lessons and learn fast. | Correct




comments powered by Disqus
↑ Back to top | Tablatures and chords are parodies/interpretations of the original songs. You may use it for private study, scholarship, research or language learning purposes only