» » »

Pearl Jam, Everyday Tabs (ver.1)

Artists:  A B C D E F G H I J K L M N O P Q R S T U V W X Y Z # 

Everyday Tabs (ver.1)

Pearl Jam Tabs
Rating:
0/5 (0 votes)
Everyday lessons Tabs too difficult? Try these video lessons and learn fast
                
Notes:
-If you dont want to or can't do the D# as a barre chord you can just do a D chord but 
it on the 3rd fret instead of the 2nd (then it becomes a D#).
-For the Cadd9 you just leave your pinky and ring finger where they were from the G and 
your first and second fingers onto the top 2 notes of a normal C chord


Pearl Jam- Everday (Buddy Holly Cover)
-|---------------------------------|---------------------------------|--------|
-|---------------------------------|---------------------------------|--------|
-|-------------------------2-2-2-2-|---------------------------------|--------|
-|-----------------2-2-2-2-0-0-0-0-|---------2-2-2-2-----------------|--------|
-|-2-2-2-2-2-2-2-2-3-3-3-3---------|-2-2-2-2-3-3-3-3-2-2-2-2-2-2-2-2-|--------|
-|-3-3-3-3-3-3-3-3-----------------|-3-3-3-3---------3-3-3-3-3-3-3-3-|--------|
                               3x

G         Cadd9           D      G           Cadd9    D
Everyday seems a little closer, going faster than a rollercoaster

G                   Cadd9   D       G      Cadd9   G
Love like yours will truly come my way    a-hey  hey hey

G        Cadd9          D       G             Cadd9        D
Everyday it's a gettin' faster, everyone says go on up and ask her
G                    Cadd9  D       G      Cadd9   G
Love like yours will truly come my way    a-hey  hey hey
Cadd9                               F
Everyday seems a little longer, and every way love's a little stronger

Bb                                  D#             D
Come what may, do you ever long for true love from me   oh

G         Cadd9         D       G             Cadd9        D
Everyday it's a gettin' faster, everyone says go on up and ask her

G                    Cadd9  D      G     Cadd9   G
Love like yours will truly come my way     hey  hey

-|-----------------------------------------------------------------------|----|
-|--15--12--8----13---13-13-13-13/15-15--15--12--8------13-13-13-12--10--|----|
-|-----------------------------------------------------------------------|----|
-|-----------------------------------------------------------------------|----|
-|-----------------------------------------------------------------------|----|
-|-----------------------------------------------------------------------|----|


-|-------------------------------------------------------|---------------------|
-|-15--12--8----13---13-13-13-12--10--8-----------------|----------------------|
-|-------------------------------------------------------|---------------------|
-|-------------------------------------------------------|---------------------|
-|-------------------------------------------------------|---------------------|
-|-------------------------------------------------------|---------------------|


Cadd9                               F
Everyday seems a little longer, and every way love's a little stronger

Bb                                   D#            D
Come what may, do you ever long for true love from me   oh

G         Cadd9           D       G           Cadd9       D
Everyday seems a little closer, going faster than a rollercoaster

G                    Cadd9   D      G     Cadd9   G
Love like yours will truly come my way   a-hey  hey hey hey

G                    Cadd9   D      G     Cadd9   G
Love like yours will truly come my way   a-hey  hey hey hey

G                    Cadd9   D       G
Love like yours will truly come my way
            
Submit corrections

comments powered by Disqus
↑ Back to top | Pearl Jam Tabs for Everyday. Lyrics for acoustic guitar and electric guitar. Tablatures and chords are parodies/interpretations of the original songs. You may use it for private study, scholarship, research or language learning purposes only