» » »

Pearl Jam, Even Flow Tabs (ver.5)

Artists:  A B C D E F G H I J K L M N O P Q R S T U V W X Y Z # 

Even Flow Tabs (ver.5)

Pearl Jam Tabs
 Rating:
4/5 (4 votes)
Even Flow lessons Tabs too difficult? Try these video lessons and learn fast
                (Solo)

The tuning for this song is awkward.  It's just over 1/2 a step down.  I
recommend you tune down the 1/2 step, then tune your E(b) string to the intro
of the song.  It's roughly 3/4 of a step. I'll tab up the rest of the song soon,
just it's quite long so I thought I'd submit the solo on it's own to start off with.
Rhythm guitar is pretty simple, the mutes have the same feel to them as the notes
in the little bridge part just before.  It plays it for quite a while, and I've
shown both guitars together later on in the tab.
Not much timing is shown on the solo, but the basics are there, underneath the
tab you'll also see numbers in parenthesis every now and then, this shows how far
you should bend.

|---------------------
|------------------9--
|------------------9--
|-x-x-x-x-x-x--x-x-9--
|-x-x-x-x-x-x--x-x-7--
|---------------------
  Rhythm     

-15^-^15-^15-^15-^15-^15-^15-^15--x-15^--x-15^-17^---x--------------12--------
----------------------------------------------------------7-7-----------------
-------------------------------------------------------0----------------------
 Lead guitar (1 tone)               (1)    (1) (1)              (1)    (1)

------------------------------------------12---------------------------12-----
-12-15^---15^-15-12-----------------------12------------------------------15--
--------------------14-brp12-----12-14-12----12-14-12-14^--p12-----14^--------
-----------------------------14--------------------------------14-------------
    (1)   (1)          (1)                            (1)          (1)

--------12--------------------------------------------------------------------
----15^----15p12--------------------------------------------------------------
-16--------------14-brp12-14-14-12--------------------------------------------
-----------------------------------14-12--------------------------------------
-----------------------------------------14-12^--12-10-12-^--12-10----10-12---
    (1)             (1)                     (1)          (1)

------------------------------------------------------------12----------------
-----------12----12-------12--12-------12----------------12----15p12-12-15^---
-----------12h14-12-------12--12-------12--------12-14^-----------------------
--------------------12h14--------12h14-----12-14------------------------------
-10^--------------------------------------------------------------------------
-------12---------------------------------------------------------------------
 (1/2)                                              (1)                 (1)

---17b--r--17br-15------------------------------------------------------------
-x---------------------12------12-12------------------------------------------
-------------------14^----14^--------14^-12-----------------------------------
--------------------------------------------14-12-----------------------------
---------------------------------------------------14-13-12-10-12-------------
     (1)     (1)   (1)    (1)        (1)                           feedback 

-------------------x-x-x---------x-x------------------------------------------
-------------------x-x-x---------x-x--14/16----------16-17-16-----------------
--------------------------------------14/16----------16-16-16-----------------
-12--12--^---12\--------------------------------------------------------------
       (1/4)                                                   little break 

|------------------------------------------------------------------------------
|------------------------------------------------------------------------------
|-----x-7--x-9--11-9\------x-7--x-9-------x-7--x-9--11-9\-x-----x-7--x-9-------
|-7/9------------------7/9------------7/9-------------------7/9----------------
|------------------------------------------------------------------------------
|------------------------------------------------------------------------------
| guitar 1        
|
|-----------------------------------------------------------------10-x-12------
|------------------------------------------------------------12------------12--
|--------------------------------------------------------------------------12--
|--------------------------------------------------------------------------12--
|------------------------------------------------------------------------------
|------------------------------------------------------------------------------
 guitar 2  

|------------------------------------------------------------------------------
|------------------------------------------------------------------------------
|--------------x-7--x-9---x-11-----9-7\---------7-----9---9-9-9--------0--0----
|----------7/9-----------------------7\---7/9--------------------------0--0----
|------------------------------------------------------------------------------
|------------------------------------------------------------------------------
| guitar 1 
|
|-----------------------------------------------10--x-12-----------------------
|-12---12------------------------9-9-9-9----12------------12--12-12-12-12-12---
|-12---12------------------------9-9-9-9------------------12--12-12-12-12-12---
|-12---12------------------------9-9-9-9------------------12--12-12-12-12-12---
|-----------7----7----7---7------7-7-7-7---------------------------------------
|------------------------------------------------------------------------------
 guitar 2  

|-----------------------------------|
|-----------------------------------|
|------7---9-----9--9---9---9-------|
|-7/9-------------------------------|
|-----------------------------------|
|-----------------------------------|
| guitar 1                          | 
|                                   |
|-----------------------------------|
|---12--------12-12-----12--12------|
|---12--------12-12-----12--12------|
|---12--------12-12-----12--12------|
|-----------------------------------|
|-----------------------------------|
 guitar 2   

Key:

x = mute
/ = slide
^ = bend
b = bend
r = release (b & r usually shown together, ^ is just for the bend without release)
p = pull off
(1) or (1/2) = how far to bend
            
Submit corrections

comments powered by Disqus
↑ Back to top | Pearl Jam Tabs for Even Flow. Lyrics for acoustic guitar and electric guitar. Tablatures and chords are parodies/interpretations of the original songs. You may use it for private study, scholarship, research or language learning purposes only