» » »

Even Flow Tabs (ver.7)

Artists:  A B C D E F G H I J K L M N O P Q R S T U V W X Y Z # 

Even Flow Tabs (ver.7)

Pearl Jam
Rating:
0/5 (0 votes)

Hard to play? Try these video lessons and learn fast.
                Intro:
E |----------------------------------------------------------------------
B |----------------------------------------------------------------------
G |------5-7-------------5-7-------------5-7---------------------------7\
D |------5-7-------------5-7-------------5-7---------------------------7\
A |----0-3-5-----------0-3-5-----------0-3-5---------5-3-0---0-3-0-----5\
D |15\-0-----0-6-5-3-0-0-----0-6-5-3-0-0-----0-6-5-3-------5-------5-0---

 Verse:
 E |--------
 B |--------
 G |--5-7--7
 D |--5-7--7
 A |0-3-5-05
 D |0-----0-  repeat 14x

 E |---------------------------------------------------------
 B |---------------------------------------------------------
 G |--5-7--7-------------------5-7-------------5-7-----------
 D |--5-7--7-------------------5-7-------------5-7-----------
 A |0-3-5-05-5-3-0---0-3-0---0-3-5-----------0-3-5-----------
 D |0-----0--------5-------5-0-----0-6-5-3-0-0-----0-6-5-3-0-

 E |----------------------------------
 B |----------------------------------
 G |--5-7---------------------------7\
 D |--5-7---------------------------7\
 A |0-3-5---------5-3-0---0-3-0-----5\
 D |0-----0-6-5-3-------5-------5-0--- 

 Chorus cords:
-----------------------------------------
-----------------------------------------
7--3--7--5--7--3--7--5--7--3--7-5-7-5-7-3
7--3--7--5--7--3--7--5--7--3--7-5-7-5-7-3
5--1--5--3--5--1--5--3--5--1--5-3-5-3-5-1
0-----0-----0-----0-----0-----0---0---0--
   
Part played during solo:
 E |------
 B |------
 G |-5-7-7
 D |-5-7-7
 A |-3-5-5
 D |----0-

Thats the whole song except for the solo.  Listen to it to figure out the rhythem.
            
Hard to play? Try these video lessons and learn fast. | Correct




comments powered by Disqus
↑ Back to top | Tablatures and chords are parodies/interpretations of the original songs. You may use it for private study, scholarship, research or language learning purposes only