» » »

Pearl Jam, Evacuation Bass tabs (ver.1)

Artists:  A B C D E F G H I J K L M N O P Q R S T U V W X Y Z # 

Evacuation Bass tabs (ver.1)

Pearl Jam Tabs
 Rating:
4/5 (4 votes)
Evacuation  lessons Tabs too difficult? Try these video lessons and learn fast
                (1)
This is one of my favorite tracks off Pearl Jam's Binaural.

This is also my first attempt at tabbing a song for the archive, 
so I apologize for any mistakes.

As for the rhytm: it's pretty easy to pick up, just listen to 
the song.

One final note: The one thing I'm not positive on is the 
Interlude part. It sounds pretty good to me when I play 
with the cd, but it might be slightly off. Any 
corrections would be greatly appreciated.





Standard Tuning

Intro/Chorus
                  
G|--------------------------------------------------------------------
D|--------------------------------------------------------------------
A|---2-2-X-2-2-X-2-2-X-2-2-X-2-2--------------0-0-0-------------------
E|-----------------------------------3-3-3----------------------------




Verse  

  "The Sirens scream wanton attention..."
G|---------------------------------------------------------------------
D|---------------------------------------------------------------------
A|--2-2-2-2-2-------6-6-6-6-6---7-7-7-7-7------6-----------------------
E|-----------------------------------------------(0)5------------------


Outro (0:55)

          (Play this twice)                (And then this)          
G|---------------------------------------------------------------------
D|---0-3--2-2-2-2-2-2-2-2-2-2-2-2-----------0-3--2-2--2-00-------------
A|-2---------------------------------------2---------------------------
E|---------------------------------------------------------------------


Chorus 2 (1:35)

G|----------------------------------------------------------------------
D|-------------0-------------0---------12-1212-10h12--------------------
A|-2---------3---2---------3---------------------------2----------------
E|---0-0-0-0--------0-0-0-0------------------------------0-0-0-0-0-0----


Interlude (1:47)
G|----------------------------------------------------------------------
D|-----------------------7-5------------------------7-5-----------------
A|-3-----------5---1-3-3----7-5--5-7---7---7--1-5-5-----7-5-5--7-7------
E|----------------------------------------------------------------------


G|----------------------------------------------------------------------
D|-------7-5------------------------------------------------------------
A|-1-5-5-----7-5--------------------------------------------------------
E|----------------------------------------------------------------------

Song Order:
Intro/Chorus
Verse (3x)
Intro/Chorus
Verse (3x)
Outro (2x)
Intro/Chorus
Chorus 2
Interlude
Chorus
Chorus 2 Until End


Questions/Comments/Corrections would be appreciated,
            
Submit corrections

comments powered by Disqus
↑ Back to top | Pearl Jam Bass for Evacuation. Lyrics for acoustic guitar and electric guitar. Tablatures and chords are parodies/interpretations of the original songs. You may use it for private study, scholarship, research or language learning purposes only