» » »

Elderly Woman Behind The Counter In A Sm Bass tabs (ver.1)

Artists:  A B C D E F G H I J K L M N O P Q R S T U V W X Y Z # 

Elderly Woman Behind The Counter In A Sm Bass tabs (ver.1)

Pearl Jam
Rating:
0/5 (0 votes)

Tabs too difficult? Try these video lessons and learn fast.
                G|---------------------------------------------------------------------|
D|---------------------------------------------------------------------|
A|-2-3-5--3--2----2-3----3-2-------5--3--2----2-3----3-2-------5--3--2-|
E|-----------------------------3---------------------------3-----------|
       Haunting...		   Cannot Find...	       Lifetimes..

G----------------------------------------------------------------------|
D----------------------------------------------------------------------|
A---2-3----3-2----2-3--3-3-0----0-3---3-3-0----0-3---3-3-0---0-/7-----7|
E------------------------------------------------------------------0---|
		    All these..			       But no ones...

G----------------------------------------------------------------------|
D----------------------------------------------------------------------|
A--7/5--3--2----2-3----3-2-------5--3--2----2-3----3-2------5--3--2----|
E----------------------------3--------------------------3--------------|
     Hearts...                                              I Swear...

G----------------------------------------------------------------------|
D----------------------------------------------------------------------|
A-2-3----3-2----2/5--3--2----2-3--3--2-----5--3--2----2-3--3--2-----5--|
E---------------------------------------3------------------------3-----|
		  Memories...		   Me you...

G----------------------------------------------------------------------|
D----------------------------------------------------------------------|
A-3--2----2-3----3-3-2----2-3--3-3-0----0-3---3-3-0----0-3---3-3-0---0-|
E----------------------------------------------------------------------|
			    I change...

G----------------------------------------------------------------------|
D----------------------------------------------------------------------|
A-0-/7-----7--7/5--3--2----2-3----3-2---2-2-5--3--2----2-3--3--2-----5-|
E-------0---------------------------------------------------------3----|
		I just...		    My God...

G----------------------------------------------------------------------|
D----------------------------------------------------------------------|
A-3--2----2-3----3-2---2-2-5--3--2----2-3----3-2---/5--3--2----2-3----2|
E----------------------------------------------------------------------|
			   Hearts and...	    Hearts and...

G-------------------------------------------------------|
D-------------------------------------------------------| 
A-----5--3--2----2-3----3-2-----5--3--2----2-3----3-2---|
E--3-------------------------3-------------------------3|

Repeat final notes and fade out.
            
Tabs too difficult? Try these video lessons and learn fast.


comments powered by Disqus
↑ Back to top | Tablatures and chords are parodies/interpretations of the original songs. You may use it for private study, scholarship, research or language learning purposes only