» » »

Pearl Jam, Deep Bass tabs (ver.1)

Artists:  A B C D E F G H I J K L M N O P Q R S T U V W X Y Z # 

Deep Bass tabs (ver.1)

Pearl Jam Tabs
 Rating:
4/5 (4 votes)
Deep lessons Tabs too difficult? Try these video lessons and learn fast
                3/4 or 6/8 time

Intro
4 times
-----------------------|--------------------------|
-----------------------|--------------------------|
--3--2-----------------|--/7777777----------------|
-----------------------|--------------------------|

Chorus Riff
--------------------------------------------------|
--------------------------------------------------|
--------------------------------------------------|
-2--2--2-222---5--5-5-555---2-22--2-222-----------|


-----------------|
--3--3-3--222----|
-----------------|
-----------------|

Verse
3x
-------------------------------------------------|
-------------------------------------------------|
-------------------------------------------------|
-2-----------2/5----------------5\---------------|


-------------------------------------------------|
-------------------------------------------------|
--------------------3-----2----------------------|
-2-----------2-----------------------------------|

Play Chorus Again
Verse
Chorus



Chorus Add-On

-------------------------------------------------|
-------------------------------------------------|
---------------0--0-0--000---3--3-3--333---------|
-2--2-2--222-------------------------------------|


-------------------------------------------------|
-------------------------------------------------|
-0--0-0--000---3--3-3--2--2-2---0--0-0--000------|
-------------------------------------------------|


-------------------------------------------------|
-------------------------------------------------|
-3--3-3--333---0--0-0--000---3--3-3--2-----------|
-------------------------------------------------|

3x              4th time
-------------|-----------|
-------------|-----------|
-3--3-3-2----|-/7777777--|
-------------|-----------|

Verse x2

Chorus

Chorus Addon
            
Submit corrections

comments powered by Disqus
↑ Back to top | Pearl Jam Bass for Deep. Lyrics for acoustic guitar and electric guitar. Tablatures and chords are parodies/interpretations of the original songs. You may use it for private study, scholarship, research or language learning purposes only