» » »

Pearl Jam, Corduroy Tabs (ver.8)

Artists:  A B C D E F G H I J K L M N O P Q R S T U V W X Y Z # 

Corduroy Tabs (ver.8)

Pearl Jam Tabs
 Rating:
4/5 (4 votes)
Corduroy lessons Tabs too difficult? Try these video lessons and learn fast
                (Live)


This is a live version of the song.  It is a little different but as an
awesome sound.
v strum down
^ strum up

intro

-|--------------------------------------------------------|-------------------|
-|--------------------------------------------------------|-------------------|
-|--------------------------------------------------------|-------------------|
-|----9----9-------9----9-9---9-----9----9-------9----9-9-|-------------------|
-|-7-----7-7--7--7-7--7-7---7-------7----7-------7----7-7-|-------------------|
-|-------------------------------5-----5----8--8----8---8-|-------------------|
   v  v  v ^  v  v ^  v ^ ^ v ^  v  v  v ^  v  v ^  v ^ v

-|--------------------------------|-------------------------------------------|
-|--------------------------------|-------------------------------------------|
-|--------------------------------|-------------------------------------------|
-|-9-9-9-9-9-9-9-9--9-9-9-9-9-9-9-|-------------------------------------------|
-|-7-7-7-7-7-7-7-7--7-7-7-7-7-7-7-|-------------------------------------------|
-|-5-5-5-5-5-5-5-8--8-8-8-8-8-8---|-------------------------------------------|
   v v v v v v v v  v v v v v v v

-|--------------------------------|-------------------------------------------|
-|----------------0--0-0--0-0-0-0-|-------------------------------------------|
-|-10-10-10-10-9--4--4-4--4-4-4-4-|-------------------------------------------|
-|-10-10-10-10-9--5--5-5--5-5-5-5-|-------------------------------------------|
-|-8--8--8--8--7--5--5-5--5-5-5-5-|-------------------------------------------|
-|-8--8--8--8--7--3--3-3--3-3-3-3-|-------------------------------------------|
   V  ^  V  ^  ^  ^  ^ v  v ^ v ^

-|----------------------3-----|-------|---------------------|-----------------|
-|---------0--0-0-------0-0---|-------|---------0--0-0------|-----------------|
-|-5-5-5-5-4--4-4--2-0------0-|-------|-5-5-5-5-4--4-4--2-0-|-----------------|
-|-x-x-x-x-0--0-0--2-0--------|--4x---|-x-x-x-x-0--0-0--2-0-|-----------------|
-|-3-3-3-3-2--2-2--0-x--------|-------|-3-3-3-3-2--2-2--0-x-|-----------------|
-|-3-3-3-3-0--0-0----3--------|-------|-3-3-3-3-0--0-0----3-|-----------------|
   v ^ V ^ v  v ^  ^ ^  ^ v ^

-|-----------------------------------------------------------|-------|--------|
-|-----------------------------------------------------------|-------|--------|
-|-----------------------------------------------------------|-------|--------|
-|----9---9-------9----9-9---9-----9----9-------9--9-9-9-9-9-|-------|--------|
-|-7----7-7--7--7-7--7-7---7-------7----7-------7--7-7-7-7-7-|-------|--------|
-|------------------------------5-----5----8--8----8-8-8-8-8-|-------|--------|
 interlude                                         ^ v ^ v ^  verse

-|-3--3--3-2--3--3-3--3-2-2-3--3--3--3-2--3--3-3--3-2-2-3-|-------------------|
-|-3--3--3-3--3--3-3--3-3-3-3--3--3--3-3--3--3-3--3-3-3-3-|-------------------|
-|-0--0--0-0--0--0-0--0-0-0-0--0--0--0-0--0--0-0--0-0-0-0-|-------------------|
-|-x--x--x-x--x--x-x--x-x-x-x--x--x--x-x--x--x-x--x-x-x-x-|-------------------|
-|-2--2--2-2--2--2-2--2-2-2-2--3--3--3-3--3--3-3--3-3-3-3-|-------------------|
-|-0---------------------------0--------------------------|-------------------|
   v  v  v ^  v  ^ v  v ^ v ^  continue rythm
            
Submit corrections

comments powered by Disqus
↑ Back to top | Pearl Jam Tabs for Corduroy. Lyrics for acoustic guitar and electric guitar. Tablatures and chords are parodies/interpretations of the original songs. You may use it for private study, scholarship, research or language learning purposes only