» » »

Pearl Jam, Corduroy Tabs (ver.2)

Artists:  A B C D E F G H I J K L M N O P Q R S T U V W X Y Z # 

Corduroy Tabs (ver.2)

Pearl Jam Tabs
 Rating:
4/5 (4 votes)
Corduroy lessons Tabs too difficult? Try these video lessons and learn fast
1
                Corduroy

intro riff
------------------------ ------------------------  \
------------------------ ------------------------  |
------------------------ ------------------------  |
-----9---9------9---9--- -----9---9------9---9---  4X
-7-7---7----7-7---7----- -0-0---0----0-0---0-----  |
------------------------ ------------------------ /

------------- 
------------- 
------------- 
-9--(pound)--
-------------
-8-----------

verse 1

------------3--------------- \
------------3--------------- |
-10-10-9----0--------------- |
-10-10-9----0--(strum)------ 4x
-8--8--7----2--------------- |
------------3--------------- /

chorus 1

-0-0-0-0--0-0-0-----0--0----- \
-3-3-3-3--3-3-3--3--3----3--- |
-0-0-0-0--0-0-0--2--0------0- |
-0-0-0-0--0-0-0--2--0-------- 4x
-3-3-3-3--2-2-2--0--2-------- |
--------------------3-------- /

break 1

------------------------ ------------------------  \
------------------------ ------------------------  |
------------------------ ------------------------  |
-----9---9------9---9--- -----9---9------9---9---  2X
-7-7---7----7-7---7----- -0-0---0----------------  |
------------------------ ------------8-8---8----- /

Verse 2 --->same as verse 1

chorus 2 --->play chorus 1 twice

interlude

-3-3-3-3-2--3-3-3-3-2- -3-3-3-3-2--3-3-3-3-2-
-3-3-3-3-3--3-3-3-3-3- -3-3-3-3-3--3-3-3-3-3-
-0-0-0-0-0--0-0-0-0-0- -0-0-0-0-0--0-0-0-0-0-
-0-0-0-0-0--0-0-0-0-0- -0-0-0-0-0--0-0-0-0-0-
-2-2-2-2-2--2-2-2-2-2- -3-3-3-3-3--3-3-3-3-3-
---------------------- ----------------------

this is done four times

chorus 3

-0-0-0-0--0-0-0-----0--0----- \
-3-3-3-3--3-3-3--3--3----3--- |
-0-0-0-0--0-0-0--2--0------0- |
-0-0-0-0--0-0-0--2--0-------- 5x
-3-3-3-3--2-2-2--0--2-------- |
--------------------3-------- /

-0-0-0-0--0-0-0----
-3-3-3-3--3-3-3--3-
-0-0-0-0--0-0-0--2-
-0-0-0-0--0-0-0--2-
-3-3-3-3--2-2-2--0-
-------------------

verse 3

------------3--------------- \
------------3--------------- |
-10-10-9----0--------------- |
-10-10-9----0--(strum)------ 4x
-8--8--7----2--------------- |
------------3--------------- /

-----------
-----------
-10-10-9---
-10-10-9---
-8--8--7---
-----------

outro
repeat this: while another guitar plays Em

------------------------ ------------------------  \
------------------------ ------------------------  |
------------------------ ------------------------  |
-----9---9------9---9--- -----9---9------9---9---  X
-7-7---7----7-7---7----- -0-0---0----------------  |
------------------------ ------------8-8---8----- /
            
Submit corrections

comments powered by Disqus
↑ Back to top | Pearl Jam Tabs for Corduroy. Lyrics for acoustic guitar and electric guitar. 1 Tablatures and chords are parodies/interpretations of the original songs. You may use it for private study, scholarship, research or language learning purposes only