>
 >
Corduroy

Corduroy Guitar Tabs

Pearl Jam - Corduroy chords, tabs, tablatures, lyrics

Guitar lessons | Add/correct | Request | Top 50 tabs Artists:  A B C D E F G H I J K L M N O P Q R S T U V W X Y Z 0-9

Corduroy Guitar Tabs – Pearl Jam

CD, Sheet music, Poster

Do you like Corduroy? Share with your friends now
Bass TabsChordsChords v2Drum TabsTabsTabs v2Tabs v3Tabs v4UkuleleUkulele v2

INTRO
                
e----------|----------|-----------|---------        play this
B----------|----------|-----------|---------       3 times,
G---4----4-|---4---4--|---4---4--|---4----4-     then below
D-2---2----|2----2----|-----------|---------     to end intro
A----------|-----------|-0--0-----|-0---0---      
E----------|-----------|-----------|--------          

e----------|-----------|-----------|----------
B----------|-----------|-----------|----------
G---4---4--|---4---4---|---4---4--|---4----3--  
D-2---2----|-2---2-----|-----------|----------       
A----------|-----------|-0---0-----|-3---3---        
E-----------|-----------|-----------|--------         


VERSE -i'm not gonna type the words, just the chord progression. Its only
three chords
Chord Structure
Name       eadcgbe
F5            x810 10 xx
E5            x799xx
G              355433

Just repeat those chords through the verse. Make sure you strum all the way
through the barred G chord-it makes it sound better.

CHORUS- listen to the song to get the rhythm down. Change between Bm, A, and
G is pretty quick at first, but practice makes perfect!
Name        eadcgbe
C5            x355xx
Bm           x24432
A             x02220
G              355433

After the chorus, play the intro again, then the verse then the chorus again
until the bridge.
BRIDGE
Name     eadcgbe
Bm         x24432
C            x32010
          Bm
Everything has chains
        C                            


intro riff
------------------------ ------------------------  \
------------------------ ------------------------  |
------------------------ ------------------------  |
-----9---9------9---9--- -----9---9------9---9---  4X
-7-7---7----7-7---7----- -0-0---0----0-0---0-----  |
------------------------ ------------------------ /

------------- 
------------- 
------------- 
-9--(pound)--
-------------
-8-----------

verse 1

------------3--------------- \
------------3--------------- |
-10-10-9----0--------------- |
-10-10-9----0--(strum)------ 4x
-8--8--7----2--------------- |
------------3--------------- /

chorus 1

-0-0-0-0--0-0-0-----0--0----- \
-3-3-3-3--3-3-3--3--3----3--- |
-0-0-0-0--0-0-0--2--0------0- |
-0-0-0-0--0-0-0--2--0-------- 4x
-3-3-3-3--2-2-2--0--2-------- |
--------------------3-------- /

break 1

------------------------ ------------------------  \
------------------------ ------------------------  |
------------------------ ------------------------  |
-----9---9------9---9--- -----9---9------9---9---  2X
-7-7---7----7-7---7----- -0-0---0----------------  |
------------------------ ------------8-8---8----- /

Verse 2 --->same as verse 1

chorus 2 --->play chorus 1 twice

interlude

-3-3-3-3-2--3-3-3-3-2- -3-3-3-3-2--3-3-3-3-2-
-3-3-3-3-3--3-3-3-3-3- -3-3-3-3-3--3-3-3-3-3-
-0-0-0-0-0--0-0-0-0-0- -0-0-0-0-0--0-0-0-0-0-
-0-0-0-0-0--0-0-0-0-0- -0-0-0-0-0--0-0-0-0-0-
-2-2-2-2-2--2-2-2-2-2- -3-3-3-3-3--3-3-3-3-3-
---------------------- ----------------------

this is done four times

chorus 3

-0-0-0-0--0-0-0-----0--0----- \
-3-3-3-3--3-3-3--3--3----3--- |
-0-0-0-0--0-0-0--2--0------0- |
-0-0-0-0--0-0-0--2--0-------- 5x
-3-3-3-3--2-2-2--0--2-------- |
--------------------3-------- /

-0-0-0-0--0-0-0----
-3-3-3-3--3-3-3--3-
-0-0-0-0--0-0-0--2-
-0-0-0-0--0-0-0--2-
-3-3-3-3--2-2-2--0-
-------------------

verse 3

------------3--------------- \
------------3--------------- |
-10-10-9----0--------------- |
-10-10-9----0--(strum)------ 4x
-8--8--7----2--------------- |
------------3--------------- /

-----------
-----------
-10-10-9---
-10-10-9---
-8--8--7---
-----------

outro
repeat this: while another guitar plays Em

------------------------ ------------------------  \
------------------------ ------------------------  |
------------------------ ------------------------  |
-----9---9------9---9--- -----9---9------9---9---  X
-7-7---7----7-7---7----- -0-0---0----------------  |
------------------------ ------------8-8---8----- /





Comments


Popular Pearl Jam tabs & chords
Alive Bass Tabs
Dirty Frank 3 Bass Tabs
Army Reserve Chords
Sirens 3 Chords
Hard To Imagine 2 Tabs
It's Ok 1 Tabs
Love Reign Oer Me Tabs
Mankind 1 Tabs
Wishlist Tabs
Masters Of War Ukulele


Song lyrics



↑ Back to top | Tablatures and chords are parodies/interpretations of the original songs. You may use it for private study, scholarship, research or language learning purposes only
© 2014 AZChords.com Contact us | Privacy policy | DMCA | Add/correct tabs | Request tabs | Top 50 tabs