» » »

Come Back Tabs (ver.3)

Artists:  A B C D E F G H I J K L M N O P Q R S T U V W X Y Z # 

Come Back Tabs (ver.3)

Pearl Jam
Rating:
0/5 (0 votes)

Hard to play? Try these video lessons and learn fast.
                -------------------------------------------------------------------------------
                             COME BACK - Pearl Jam
-------------------------------------------------------------------------------

Tuning: standard

Got the new album tuesday and noticed the tab for the solo was wrong, heres what I have
far, the rest will be in later. I have figured out that if you combine parts of this and
other solo at on this site it is really good, but neither is 100% accurate. end playing 
C power chord, and start here.

The solo has a lot of hammer ons in it, so if you can reach, try add more hammer ons
I put a change of strings (i.e. 10h12h14 to start instead of 10h12 then 10 on 2nd string).
solos out of the blues scale, so if you think som,ethings wrong, just play the scale and 
your wown notes from the scale in there.


3:38
e|-----------------------------------------------------------------------10--|
B|---------10-------------13p10--------10--------13------------10h13p10------|
G|--10h12-------------------------------------------10-----------------------|
D|---------------------------------------------------------------------------|
A|---------------------------------------------------------------------------|
E|---------------------------------------------------------------------------|

e|---------------------------------------------------------------------------|
B|---10h13p10----------------------------------------------------------------|
G|--------------10-----------------------------------------------------------|
D|---------------------------------------------------------------------------|
A|---------------------------------------------------------------------------|
E|---------------------------------------------------------------------------|


3:58
e|---------------------------------------------------------------------------|
B|---------10---13----10-----------------------------------13----------------|
G|--10h12------------------10----------12--12--12--------------12--10--------|
D|---------------------------------------------------------------------------|
A|---------------------------------------------------------------------------|
E|---------------------------------------------------------------------------|

e|---10----------------------------------------------------------------------|
B|---------------------------------------------------------------------------|
G|-------12--10--------------------------------------------------------------|
D|---------------------------------------------------------------------------|
A|---------------------------------------------------------------------------|
E|---------------------------------------------------------------------------|

The rest will be posted soon, I'm trying to get the second part a little more accurate
I currently have it, hope you have fun playing it, its an awesome new album.

| /  slide up
|   slide down
| h  hammer-on
| p  pull-off
| ~  vibrato
| +  harmonic
| x  Mute note
===============================================================================
            
Hard to play? Try these video lessons and learn fast. | Correct




comments powered by Disqus
↑ Back to top | Tablatures and chords are parodies/interpretations of the original songs. You may use it for private study, scholarship, research or language learning purposes only