>
 >
Chop It Down

Chop It Down Guitar Tabs

Pearl Jam - Chop It Down chords, tabs, tablatures, lyrics

Guitar lessons | Add/correct | Request | Top 50 tabs Artists:  A B C D E F G H I J K L M N O P Q R S T U V W X Y Z 0-9

Chop It Down Guitar Tabs – Pearl Jam

CD, Sheet music, Poster

Do you like Chop It Down? Share with your friends now
Tabs
-|---------------------------------------------------------------------|------
-|-5-------------5-------------------------7----5----------------------|------
-|-6h7--6h7--6---6-----7----7---6--x--7----7----6---6----------7---6---|------
-|-7----7----7---------7h9--7---7--x--7h9--7----7---7-----7h9--7---7---|------
-|-0---------0------0--0--------------0-------0-------0------------0---|------
-|---------------------------------------------------------------------|------
      Wooo                                                                    

-|--------------------------------------------|-------------------------------
-|--------7---5-----------------7---5---------|-------------------------------
-|--7-----7---6---7p6-----7-----7---6---------|-------------------------------
-|--7h9---7---7-------7---7h9---7---7---------|-------------------------------
-|--0---------x-----------0---------x---------|-------------------------------
-|------------5---------------------5---------|-------------------------------
   Stone jams on this riff for most of the song                               

-|----------------------------------------------------------------|-----------
-|------5--------------------------------------5------------------|-----------
-|-4b6----6r4--2h4p2vvv-------------2vvvv--4/6---6\4--2---2h4p2---|-----------
-|----------------------2h4p2---2h4---------------------4---------|-----------
-|----------------------------4-----------------------------------|-----------
-|----------------------------------------------------------------|-----------
 Intro Solo (Mike)                                                            

-|----------------------------------------------------------------------|-----
-|-15h17-15h17----15p14---14h15--14--17--15p14-------------3p2---2h3/5--|-----
-|------------------------14-----14----------------------------2--------|-----
-|------------------------------------------------2h4p2-----------------|-----
-|----------------------------------------------------------------------|-----
-|----------------------------------------------------------------------|-----
                                                                              

-|----------------------------|-----------------------------------------------
-|--3p2-5---------------------|-----------------------------------------------
-|---------4--2h4p2-----2vvv--|-----------------------------------------------
-|------------------2h4-------|-----------------------------------------------
-|----------------------------|-----------------------------------------------
-|----------------------------|-----------------------------------------------
                                Mike joins in on the jam riff for the verse   

-|-----------------------------|------------------------------------------|---
-|------------5----------------|----17------17----------------------------|---
-|-2b4r2--4b6---6r4-2-----2----|-14---16b18---b18r16-14vvv----------------|---
-|--------------------2h4---4/-|---------------------------16p14----------|---
-|-----------------------------|---------------------------------16-14-12-|---
-|-----------------------------|------------------------------------------|---
  Main solo (Mike)                                                            

-|-----------------------------------------|----------------------------------
-|-17------17------------------------------|----------------------------------
-|---16b18---b18r16-14vv-------------------|----------------------------------
-|-----------------------16-14-------14----|----------------------------------
-|-----------------------------14h16----16-|----------------------------------
-|-----------------------------------------|----------------------------------
                                                                              

-|-------------------------------------------------------------------|--------
-|-17-------17-------------------------------------------------------|--------
-|----16b18---b18r16-14vv-14----------------------14----14-16-14vvv--|--------
-|---------------------------16-------14h16-14h16----16--------------|--------
-|------------------------------14h16--------------------------------|--------
-|-------------------------------------------------------------------|--------
                                                                              

-|-------17-17-17b19r17-14---------------------------------------------|------
-|-------------------------17b19--r17vv--15p14-15p14-------------------|------
-|-14-14---------------------------------------------16-16-------14vvv-|------
-|---------------------------------------------------------14h16-------|------
-|---------------------------------------------------------------------|------
-|---------------------------------------------------------------------|------
                                                                              

-|-----------------------17-------17-----17----17----17----17----17----17-|---
-|-----------15p14-15-15-------15-----15----15----15----15----15----14----|---
-|-14h16p14---------------------------------------------------------------|---
-|------------------------------------------------------------------------|---
-|------------------------------------------------------------------------|---
-|------------------------------------------------------------------------|---
                                                                              

-|----17--------------------------------------------------|-------------------
-|-15----14h15--15p14-------------------------------------|-------------------
-|--------------------------14----14h16-14----------------|-------------------
-|--------------------14h16----16----------16-------14vvv-|-------------------
-|--------------------------------------------14h16-------|-------------------
-|--------------------------------------------------------|-------------------
                                                                              

-|------------------------------------------------------------|---------------
-|------------------------------------------------------------|---------------
-|---------------------------------------------------14h16-14-|---------------
-|---------------------------------------------14h16----------|---------------
-|-14b15r14-12----12h14p12----12h14-12---14/16----------------|---------------
-|-------------14----------14---------------------------------|---------------
                                                                              

-|-----------------------------------------------------------------------|----
-|-17------------------------------------------------------------5-------|----
-|----16b18-r16--*b17r16--16b17-17-16b18-*b18r16-16--x-2-2h4-4/6---6\4-2-|----
-|-----------------------------------------------------------------------|----
-|-----------------------------------------------------------------------|----
-|-----------------------------------------------------------------------|----
               *pinch harm. hold--|                                           

-|---------------------------------------------9------9----9--7--9--|---------
-|-------------------5------------5-5h7p5---------------------------|---------
-|-----2-------2-4b6---6r4-2--4/6---------6-/9-----/9---/9----------|---------
-|-2h4---4p2-4------------------------------------------------------|---------
-|------------------------------------------------------------------|---------
-|------------------------------------------------------------------|---------
                  hold--|                                                     

-|-----------------------------------------------------------------|----------
-|-----------------5-----------------------------------------------|----------
-|-2vv-2h4p2---4b6---6r4----------------------------2---2---2---2--|----------
-|-----------4-----------2h4p2-------------2h4p2----2---2---2---2--|----------
-|-----------------------------4-2h4-2-0---------4--0---0---0---0--|----------
-|-----------------------------------------------------------------|----------
                hold--|                                                       

-|----------------------17-15-14------------------------17-15-14--|-----------
-|-15-14--17-14--15-14-------------15-14--17-14--15-14------------|-----------
-|----------------------------------------------------------------|-----------
-|----------------------------------------------------------------|-----------
-|----------------------------------------------------------------|-----------
-|----------------------------------------------------------------|-----------
                                                                              

-|----------------------17--14--14-15-14-----------------------------|--------
-|-17-14--15-14--15-14-------------------17-14--15-14--15-14--15-14--|--------
-|-------------------------------------------------------------------|--------
-|-------------------------------------------------------------------|--------
-|-------------------------------------------------------------------|--------
-|-------------------------------------------------------------------|--------
                                                                              

-|-------------------------------------------------------------------------|--
-|-15-14-15-14--15-14--15-14--17-14--15-14--15-14-15-14--15-14-17-14-17-17-|--
-|-------------------------------------------------------------------------|--
-|-------------------------------------------------------------------------|--
-|-------------------------------------------------------------------------|--
-|-------------------------------------------------------------------------|--
                                                                              

-|--------14-15-14-----------------------------14-15-14-------------------|---
-|-15-14-----------17-14--15-14--17-14--15-14-----------17-14--15-14--14--|---
-|------------------------------------------------------------------------|---
-|------------------------------------------------------------------------|---
-|------------------------------------------------------------------------|---
-|------------------------------------------------------------------------|---
                                                                              

-|-------------------------------------------------------|--------------------
-|-------5--------5--------5--5h7-5-------------5--5h7p5-|--------------------
-|-7--6-----7--6-----7--6-----------6--6h7--7---6--------|--------------------
-|-7--7-----7--7-----7--7--------------7----7---7--------|--------------------
-|-------------------------------------------------------|--------------------
-|-------------------------------------------------------|--------------------
 Outro jams (both guitars)                                                    

-|--12---x-12---x-x-x-12---x-12----|------------------------------------------
-|--12---x-12---x-x-x-12---x-12-12-|------------------------------------------
-|--12---x-12---x-x-x-12---x-12-12-|------------------------------------------
-|---------------------------------|------------------------------------------
-|---------------------------------|------------------------------------------
-|---------------------------------|------------------------------------------
  Near the end they jam with this                                             

-|---5------5------5------5--------||-----------------------------------------
-|---5------5------5------5--------||-----------------------------------------
-|---6------6------6------6--------||-----------------------------------------
-|---------------------------------||-----------------------------------------
-|---------------------------------||-----------------------------------------
-|---------------------------------||-----------------------------------------
    End after these chords





Comments


Popular Pearl Jam tabs & chords
Alive Bass Tabs
Porch 2 Bass Tabs
The Fixer Bass Tabs
Breakerfall Chords
Leatherman Chords
Lightning Bolt Chords
Patriot Chords
Angel Tabs
Last Exit Tabs
The Golden State Tabs


Song lyrics



↑ Back to top | Tablatures and chords are parodies/interpretations of the original songs. You may use it for private study, scholarship, research or language learning purposes only
© 2014 AZChords.com Contact us | Privacy policy | DMCA | Add/correct tabs | Request tabs | Top 50 tabs