» » »

Brain Of Jfk Tabs (ver.1)

Artists:  A B C D E F G H I J K L M N O P Q R S T U V W X Y Z # 

Brain Of Jfk Tabs (ver.1)

Pearl Jam
Rating:
0/5 (0 votes)

Hard to play? Try these video lessons and learn fast.
                "12341234"
e--------
B--------
G--------
D--------
A--------
E-777-666

"Sorry,12341234"

Main/Intro riff
e---------------------
B---------------------
G---------------------
D---------------------
A---------------5---5-
E-777-666-5-567---7---

Chorus Chords:
e------------------------------
B------------------------------
G------------------------------
D-10----6----3----10----6-----8
A-10----6----3----10----6-----8
E-8-----4----1----8-----4-----6

The part where Jeff is soloing is in G



Just repeat those parts as neccassary.  If you havce any questions or comments email 

Thanks
            
Hard to play? Try these video lessons and learn fast. | Correct




comments powered by Disqus
↑ Back to top | Tablatures and chords are parodies/interpretations of the original songs. You may use it for private study, scholarship, research or language learning purposes only