>
 >
Black Red Yellow

Black Red Yellow Guitar Tabs

Pearl Jam - Black Red Yellow chords, tabs, tablatures, lyrics

Guitar lessons | Add/correct | Request | Top 50 tabs Artists:  A B C D E F G H I J K L M N O P Q R S T U V W X Y Z 0-9

Black Red Yellow Guitar Tabs – Pearl Jam

CD, Sheet music, Poster

Do you like Black Red Yellow? Share with your friends now
Bass TabsTabs

STANDARD TUNING
E-A-D-G-B-E


During The Verses Gtr. 3 Is Doubling Gtr. 1

-|-------|--------------------------------------------------------------------|
-|-------|--------------------------------------------------------------------|
-|-------|--------------------------------------------------------------------|
-|--5/7--|--------------------------------------------------------------------|
-|--5/7--|--------------------------------------------------------------------|
-|--3/5--|--------------------------------------------------------------------|

Intro Gtr. 1

-|---------------------------------|------------------------------------------|
-|---------------------------------|------------------------------------------|
-|---------------------------------|------------------------------------------|
-|---------------7-----------------|------------------------------------------|
-|---------------7-----------------|------------------------------------------|
-|---------------5-----------------|------------------------------------------|

 Gtr. 2  Each Time Gtr. 1 hits A

-|-----------------------------|-----------------------------|----------------|
-|-----------------------------|-----------------------------|----------------|
-|-----------------------------|-----------------------------|----------------|
-|---------------7-7-7--5-x-2--|--7-7-7-7-7-7-7-7-7-7-7-7-7--|----------------|
-|---7-7-7-7-7-7-7-7-7--5-x-2--|--7-7-7-7-7-7-7-7-7-7-7-7-7--|----------------|
-|---5-5-5-5-5-5-5-5-5--3-x-0--|--5-5-5-5-5-5-5-5-5-5-5-5-5--|----------------|

Gtr.1 PM------|                                      With Fill 1

-|-------------|---5---|--19-19-19-19-19-19-19-19-19--|-----------------------|
-|--2--x--3-2--|---5---|------------------------------|-----------------------|
-|--2--x--2-2--|---6---|------------------------------|-----------------------|
-|-------------|-------|------------------------------|-----------------------|
-|-------------|-------|------------------------------|-----------------------|
-|-------------|-------|------------------------------|-----------------------|

Gtr.2 Fill 1   Fill 2  Fill 3

-|---------------------------------------------------|------------------------|
-|---------------------------------------------------|------------------------|
-|---------------------------------------------------|------------------------|
-|--7-7-7-7-7-7-7-7-7--5--2--5--7-7-7-7-7-7-7-7-7-7--|------------------------|
-|--7-7-7-7-7-7-7-7-7--5--2--5--7-7-7-7-7-7-7-7-7-7--|------------------------|
-|--5-5-5-5-5-5-5-5-5--3--0--3--5-5-5-5-5-5-5-5-5-5--|------------------------|

Verse Gtr.1                        With Fill 2

-|---------------------------------------------------|------------------------|
-|---------------------------------------------------|------------------------|
-|---------------------------------------------------|------------------------|
-|--7-7-7-7-7-7-7-7-7--5--2--5--7-7-7-7-7-7-7-7-7-7--|------------------------|
-|--7-7-7-7-7-7-7-7-7--5--2--5--7-7-7-7-7-7-7-7-7-7--|------------------------|
-|--5-5-5-5-5-5-5-5-5--3--0--3--5-5-5-5-5-5-5-5-5-5--|------------------------|

 With Fill 1

-|---------------------------------------------------|------------------------|
-|---------------------------------------------------|------------------------|
-|---------------------------------------------------|------------------------|
-|--7-7-7-7-7-7-7-7-7--5--2--5--7-7-7-7-7-7-7-7-7-7--|------------------------|
-|--7-7-7-7-7-7-7-7-7--5--2--5--7-7-7-7-7-7-7-7-7-7--|------------------------|
-|--5-5-5-5-5-5-5-5-5--3--0--3--5-5-5-5-5-5-5-5-5-5--|------------------------|

-|--------------------------------------------|-------------------------------|
-|--------------------------------------------|-------------------------------|
-|--9-9-9-9-9-9-9-7-4-7-----------------------|-------------------------------|
-|--9-9-9-9-9-9-9-7-4-7-x-x--7-7-7-7-7-7-7-7--|-------------------------------|
-|--7-7-7-7-7-7-7-5-2-5-x-x--7-7-7-7-7-7-7-7--|-------------------------------|
-|----------------------x-x--5-5-5-5-5-5-5-5--|-------------------------------|

Gtr.1 Chorus                          With Fill 1

-|--------------------------------------------|-------------------------------|
-|--------------------------------------------|-------------------------------|
-|--9-9-9-9-9-9-9-7-4-7-----------------------|-------------------------------|
-|--9-9-9-9-9-9-9-7-4-7-x-x--7-7-7-7-7-7-7-7--|-------------------------------|
-|--7-7-7-7-7-7-7-5-2-5-x-x--7-7-7-7-7-7-7-7--|-------------------------------|
-|----------------------x-x--5-5-5-5-5-5-5-5--|-------------------------------|

-|-------------|--------------------------------------------------------------|
-|-------------|--------------------------------------------------------------|
-|-------------|--------------------------------------------------------------|
-|--5/7---5/7--|--------------------------------------------------------------|
-|--5/7---5/7--|--------------------------------------------------------------|
-|--3/5---3/5--|--------------------------------------------------------------|

Gtr. 1

-|--------3/5---3/5---3/5--|--------------------------------------------------|
-|--------3/5---3/6---3/6--|--------------------------------------------------|
-|--------4/6---4/6---4/6--|--------------------------------------------------|
-|-------------------------|--------------------------------------------------|
-|--5/7--------------------|--------------------------------------------------|
-|--3/5--------------------|--------------------------------------------------|

Gtr. 2

-|------------------|---------------------------------------------------------|
-|------------------|---------------------------------------------------------|
-|--------7---------|---------------------------------------------------------|
-|--------7---------|---------------------------------------------------------|
-|--------5---------|---------------------------------------------------------|
-|------------------|---------------------------------------------------------|

Gtr.1 With Fill 3

-|-------------------------------------|--------------------------------------|
-|-------------------------------------|--------------------------------------|
-|-------------------------------------|--------------------------------------|
-|--7-7-7-7-7-7-7-5-2-5-7-7-7-7-7-7-7--|--------------------------------------|
-|--7-7-7-7-7-7-7-5-2-5-7-7-7-7-7-7-7--|--------------------------------------|
-|--5-5-5-5-5-5-5-3-0-3-5-5-5-5-5-5-5--|--------------------------------------|

Verse Gtr. 1         With Fill 1 and 2

-|-------------------------------------|--------------------------------------|
-|-------------------------------------|--------------------------------------|
-|-------------------------------------|--------------------------------------|
-|--7-7-7-7-7-7-7-5-2-5-7-7-7-7-7-7-7--|--------------------------------------|
-|--7-7-7-7-7-7-7-5-2-5-7-7-7-7-7-7-7--|--------------------------------------|
-|--5-5-5-5-5-5-5-3-0-3-5-5-5-5-5-5-5--|--------------------------------------|

 With Fill 2

-|-----------------------------------------------|----------------------------|
-|-----------------------------------------------|----------------------------|
-|--9-9-9-9-9-9-9-7-4-7--------------------------|----------------------------|
-|--9-9-9-9-9-9-9-7-4-7-7-7-7-7-7-7-7-7-7-7-7-7--|----------------------------|
-|--7-7-7-7-7-7-7-5-2-5-7-7-7-7-7-7-7-7-7-7-7-7--|----------------------------|
-|----------------------5-5-5-5-5-5-5-5-5-5-5-5--|----------------------------|

Chorus Gtr. 1                         With Fill 1

-|-----------------------------------------------|----------------------------|
-|-----------------------------------------------|----------------------------|
-|--9-9-9-9-9-9-9-7-4-7--------------------------|----------------------------|
-|--9-9-9-9-9-9-9-7-4-7-7-7-7-7-7-7-7-7-7-7-7-7--|----------------------------|
-|--7-7-7-7-7-7-7-5-2-5-7-7-7-7-7-7-7-7-7-7-7-7--|----------------------------|
-|----------------------5-5-5-5-5-5-5-5-5-5-5-5--|----------------------------|

-|-----------------------------------------------|----------------------------|
-|-----------------------------------------------|----------------------------|
-|--9-9-9-9-9-9-9-7-4-7--------------------------|----------------------------|
-|--9-9-9-9-9-9-9-7-4-7-7-7-7-7-7-7-7-7-7-7-7-7--|----------------------------|
-|--7-7-7-7-7-7-7-5-2-5-7-7-7-7-7-7-7-7-7-7-7-7--|----------------------------|
-|----------------------5-5-5-5-5-5-5-5-5-5-5-5--|----------------------------|

With Fill 1

-|-------------------|--------------------------------------------------------|
-|-------------------|--------------------------------------------------------|
-|--9-9-9-9-9-9-9-7--|--------------------------------------------------------|
-|--9-9-9-9-9-9-9-7--|--------------------------------------------------------|
-|--7-7-7-7-7-7-7-5--|--------------------------------------------------------|
-|-------------------|--------------------------------------------------------|

-|---------|------------------------------------------------------------------|
-|---------|------------------------------------------------------------------|
-|---4/6---|------------------------------------------------------------------|
-|---5/7---|------------------------------------------------------------------|
-|---5/7---|------------------------------------------------------------------|
-|---3/5---|------------------------------------------------------------------|

Bridge Gtr. 1

-|--x-x--3--3--3--0-0-0-0-0-0-0-0-0-0-0--|-------------------------------------|
-|--x-x--3--3--3--2-2-2-2-2-2-2-2-2-2-2--|-------------------------------------|
-|--x-x--4--4--4--2-2-2-2-2-2-2-2-2-2-2--|-------------------------------------|
-|----------------------------------------|------------------------------------|
-|----------------------------------------|------------------------------------|
-|----------------------------------------|------------------------------------|

Gtr. 2

-|---------------|------------------------------------------------------------|
-|---x-----x-----|------------------------------------------------------------|
-|---x--7--x--6--|------------------------------------------------------------|
-|---x-----x-----|------------------------------------------------------------|
-|---------------|------------------------------------------------------------|
-|---------------|------------------------------------------------------------|

 Gtr. 3   (Listen To CD)

-|---------------------------------------------|------------------------------|
-|---------------------------------------------|------------------------------|
-|--9-9-9-9-9-9-9-7-4-7------------------------|------------------------------|
-|--9-9-9-9-9-9-9-7-4-7-7-7-7-7-7-7-7-7-7-7-7--|------------------------------|
-|--7-7-7-7-7-7-7-5-2-5-7-7-7-7-7-7-7-7-7-7-7--|------------------------------|
-|----------------------5-5-5-5-5-5-5-5-5-5-5--|------------------------------|

Chorus Gtr. 1                     With Fill 1

-|---------------------------------------------|------------------------------|
-|---------------------------------------------|------------------------------|
-|--9-9-9-9-9-9-9-7-4-7------------------------|------------------------------|
-|--9-9-9-9-9-9-9-7-4-7-7-7-7-7-7-7-7-7-7-7-7--|------------------------------|
-|--7-7-7-7-7-7-7-5-2-5-7-7-7-7-7-7-7-7-7-7-7--|------------------------------|
-|----------------------5-5-5-5-5-5-5-5-5-5-5--|------------------------------|

-|---------------------------------------------|------------------------------|
-|---------------------------------------------|------------------------------|
-|--9-9-9-9-9-9-9-7-4-7------------------------|------------------------------|
-|--9-9-9-9-9-9-9-7-4-7-7-7-7-7-7-7-7-7-7-7-7--|------------------------------|
-|--7-7-7-7-7-7-7-5-2-5-7-7-7-7-7-7-7-7-7-7-7--|------------------------------|
-|----------------------5-5-5-5-5-5-5-5-5-5-5--|------------------------------|

With Fill 1

-|-------------------|--------------------------------------------------------|
-|-------------------|--------------------------------------------------------|
-|--9-9-9-9-9-9-9-7--|--------------------------------------------------------|
-|--9-9-9-9-9-9-9-7--|--------------------------------------------------------|
-|--7-7-7-7-7-7-7-5--|--------------------------------------------------------|
-|-------------------|--------------------------------------------------------|


Enjoy!





Comments


Popular Pearl Jam tabs & chords
Why Go 3 Bass Tabs
Future Days 2 Chords
Keep On Rocking In The Free World Chords
Long Road Chords
Yellow Ledbetter Chords
Even Flow 1 Tabs
Lightning Bolt Tabs
Masters Of War Tabs
Off He Goes 1 Tabs
Rearviewmirror 1 Tabs


Song lyrics



↑ Back to top | Tablatures and chords are parodies/interpretations of the original songs. You may use it for private study, scholarship, research or language learning purposes only
© 2014 AZChords.com Contact us | Privacy policy | DMCA | Add/correct tabs | Request tabs | Top 50 tabs