» » »

Pearl Jam, Against The 70s Tabs (ver.1)

Artists:  A B C D E F G H I J K L M N O P Q R S T U V W X Y Z # 

Against The 70s Tabs (ver.1)

Pearl Jam Tabs
Rating:
0/5 (0 votes)
Against The 70s lessons Tabs too difficult? Try these video lessons and learn fast
                Intro
Crazy wah-wah very hard to figure jam around.
Suggestions would be cool. 
|---------------------------------------------------------------------
|---------------------------17-15-15-15-15-15b-17-17b-----------------
|---------------------------------------------------------------------
|--14-12v-12b-14-12v-12b-12b------------------------------------------
|---------------------------------------------------------------------
|---------------------------------------------------------------------

Verse and chorus: 
|---------------------------------------------------------------------
|---------------------------------------------------------------------
|--7-7-7-7-7-7-7-7-7--------------------------------------------------
|--7-7-7-7-7-7-7-7-7-----7-7-7-7-7-7-7-7-7----------------------------
|--5-5-5-5-5-5-5-5-5-----7-7-7-7-7-7-7-7-7----------------------------
|------------------------5-5-5-5-5-5-5-5-5----------------------------

after chorus:
|---------------------------------------------------------------------
|---------------------------------------------------------------------
|---14---11---9--7---6-4----11----------------------------------------
|---------------------------------------------------------------------
|---12----9---7--5---4-2-----9----------------------------------------
|---------------------------------------------------------------------

solo after 1st chorus, with wah-wah:
|---------------------------------------------------------------------
|-------------------------------------------------15-15-15-15--17-17--
|--14-14-14-14---16-16-16-16-17-17-16-16-16-17-17---------------------
|---------------------------------------------------------------------
|---------------------------------------------------------------------
|---------------------------------------------------------------------

|---------------------------------------------------------------------
|-17-17-17------------------------------------------------------------
|---------------------------------------------------------------------
|---------------------------------------------------------------------
|---------------------------------------------------------------------
|---------------------------------------------------------------------

Verse and chorus: 
|---------------------------------------------------------------------
|---------------------------------------------------------------------
|--7-7-7-7-7-7-7-7-7--------------------------------------------------
|--7-7-7-7-7-7-7-7-7-----7-7-7-7-7-7-7-7-7----------------------------
|--5-5-5-5-5-5-5-5-5-----7-7-7-7-7-7-7-7-7----------------------------
|------------------------5-5-5-5-5-5-5-5-5----------------------------

then...
"Speaking as a child of the 70s..."
|--7------------------------------------------------------------------
|--7------------------------------------------------------------------
|--8------------------------------------------------------------------
|--9------------------------------------------------------------------
|--9------------------------------------------------------------------
|--7------------------------------------------------------------------

chorus
|---------------------------------------------------------------------
|---------------------------------------------------------------------
|--7-7-7-7-7-7-7-7-7--------------------------------------------------
|--7-7-7-7-7-7-7-7-7-----7-7-7-7-7-7-7-7-7----------------------------
|--5-5-5-5-5-5-5-5-5-----7-7-7-7-7-7-7-7-7----------------------------
|------------------------5-5-5-5-5-5-5-5-5----------------------------

solo with crazy wah-wah
|---------------------------------------------------------------------
|-------------------------------------------------15-15-15-15--17-17--
|--14-14-14-14---16-16-16-16-17-17-16-16-16-17-17---------------------
|---------------------------------------------------------------------
|---------------------------------------------------------------------
|---------------------------------------------------------------------

Cool one
            

comments powered by Disqus
↑ Back to top | Pearl Jam Tabs for Against The 70s. Lyrics for acoustic guitar and electric guitar. Tablatures and chords are parodies/interpretations of the original songs. You may use it for private study, scholarship, research or language learning purposes only