» » »

Peaches, Boys Wanna Be Her Tabs (ver.1)

Artists:  A B C D E F G H I J K L M N O P Q R S T U V W X Y Z # 

Boys Wanna Be Her Tabs (ver.1)

Peaches Tabs
 Rating:
4/5 (4 votes)
Boys Wanna Be Her lessons Tabs too difficult? Try these video lessons and learn fast
1
                -------------------------------------------------------------------------------
-------------------------------------------------------------------------------

I couldn't find the tab for this song so I decided to make one.
It's my first tab and I think it's OK.
This is one of my favorite Peaches songs.I'm not so sure about the lyrics though.
Don't forget to rate and comment.

Tuning: Standard


Intro:
e|---------------------------------------------------------------------------|
B|---------------------------------------------------------------------------|
G|---------------------------------------------------------------------------|
D|---------------------------------------------------------------------------|
A|---------------------------------------------------------------------------|
E|----5---2-------------------------5---2------------------------------------|

e|---------------------------------------------------------------------------|
B|---------------------------------------------------------------------------|
G|---------------------------------------------------------------------------|
D|---------------------------------------------------------------------------|
A|---------------------------------------------------------------------------|
E|----22222-5-----22222-5-----22222-5-----22222-0----------------------------|

e|---------------------------------------------------------------------------|
B|---------------------------------------------------------------------------|
G|---------------------------------------------------------------------------|
D|---------------------------------------------------------------------------|
A|---------------------------------------------------------------------------|
E|----22222-5-----22222-5-----22222-5-----22222-5---2------------------------|

Verse:
e|---------------------------------------------------------------------------|
B|---------------------------------------------------------------------------|
G|---------------------------------------------------------------------------|
D|---------------------------------------------------------------------------|
A|---------------------------------------------------------------------------|
E|----5---2-------------------------5---2------------------------------------|

You've got them all, by the balls 
causin' waterfalls
Stone walls
Bar brawls
Common stalls at concert halls

To you they crawl, body sprawl
Smokin' Pall Malls
Close call, stand tall
Doll, you make them feel so small

e|---------------------------------------------------------------------------|
B|---------------------------------------------------------------------------|
G|---------------------------------------------------------------------------|
D|---------------------------------------------------------------------------|
A|---------------------------------------------------------------------------|
E|----22222-5-----22222-5-----2--5-----2--5-----2--5-----2--5-----(2x)-------|
     
AND THEY LOVE IT! 

Chorus:
e|-----------------------------------------------------------------|
B|-----------------------------------------------------------------|
G|-----------------------------------------------------------------|  3x
D|-----------------------------------------------------------------|
A|-----------------------------------------------------------------|
E|----5---2----------------------0---------------------------------|

The boys wanna be her (The boys) The girls wanna be her (The girls)

e|--------------------|
B|--------------------|
G|--------------------|  
D|--------------------|
A|--------------------|
E|----5---2-----------|

The boys wanna be her

Verse:

I wanna be her

Yes I do

e|---------------------------------------------------------------------------|
B|---------------------------------------------------------------------------|
G|---------------------------------------------------------------------------|
D|---------------------------------------------------------------------------|
A|---------------------------------------------------------------------------|
E|----2--------5---2--------5---2--------------------------------------------|

The way you rock, non-stop
Girl, you got the chops
Flip flop
She bop
Self-taught
You lick so hot
Are you conceived (?)
Kids receive
Crawling up the sleeve
Parents bleed
Can't conceive
That her deed will never leave

e|---------------------------------------------------------------------------|
B|---------------------------------------------------------------------------|
G|---------------------------------------------------------------------------|
D|---------------------------------------------------------------------------|
A|---------------------------------------------------------------------------|
E|----22222-5-----22222-5-----2--5-----2--5-----2--5-----2--5----(2x)--------|
     
AND WE LOVE IT! 

(Chorus)

I wanna be her

So do you

e|--------------------|
B|--------------------|
G|--------------------|  
D|--------------------|  2x
A|--------------------|
E|----5---2-----------|

Listen up       
Listen up
Listen up
Voices scatter(4x)

e|--------------------|            
B|--------------------|          
G|--------------------|  
D|--------------------|  
A|--------------------|
E|----5---2-----------|
Listen up                 }2x      
Listen up
Listen up
Voices scatter(2x)

e|-----------------------------------------------------------------|
B|-----------------------------------------------------------------|
G|-----------------------------------------------------------------| 7x
D|-----------------------------------------------------------------|
A|-----------------------------------------------------------------|
E|----5---2---------------------0----------------------------------|
The boys wanna be her(the boys) The girls wanna be her(the girls)(scatter)

e|--------------------|
B|--------------------|
G|--------------------|  
D|--------------------|
A|--------------------|
E|----5---2-----------|

The boys wanna be her(the boys)

e|------------------------------------------|
B|------------------------------------------|
G|------------------------------------------| x4
D|------------------------------------------|
A|------------------------------------------|
E|---------5----2---------------0-----------|

Scatter!  The boys ..............The girls              

e|--------------------|
B|--------------------|
G|--------------------|  
D|--------------------|
A|--------------------|
E|----5---2-----------|

The boys

e|---------------------------------------------------------------------------|
B|---------------------------------------------------------------------------|
G|---------------------------------------------------------------------------|
D|---------------------------------------------------------------------------|
A|---------------------------------------------------------------------------|
E|----22222-5-----22222-5-----2--5-----2--5-----2--5-----2--5---(2x)----0----|


The End
Byee!
            
Submit corrections

comments powered by Disqus
↑ Back to top | Peaches Tabs for Boys Wanna Be Her. Lyrics for acoustic guitar and electric guitar. 1 Tablatures and chords are parodies/interpretations of the original songs. You may use it for private study, scholarship, research or language learning purposes only