» » »

Bad Boy Tabs (ver.1)

Artists:  A B C D E F G H I J K L M N O P Q R S T U V W X Y Z # 

Bad Boy Tabs (ver.1)

P Diddy
Rating:
0/5 (0 votes)

Hard to play? Try these video lessons and learn fast.
                tuning:standard
I usually don’t listen to this type of music, actually I hate it, but it was 1:30 in the morning and this video came on so I decided to do something  usefull





|----------------------------------------------|
|----------------------------------------------|
|----------------------------------------------|
|----------------------------------------------|
|---0-4-2-0---4-2-0----------------------------|
|-2---------2----------------------------------|

|-------------------------------------------------------------|
|-------------------------------------------------------------|
|-------------------------------------------------------------|
|-----2---7-4-2-4-x-x-x-x-2-----------------------------------|
|---------------------------4-----4-2-4----4-4-2-0------------|
|-2-2-------------------------------------------------2-2-----|

|----------------------------------------------|
|----------------------------------------------|
|----------------------------------------------|
|----------------------------------------------|
|--4-2-0---0-----------------------------------|
|--------2---2---------------------------------|
            
Hard to play? Try these video lessons and learn fast. | Correct




comments powered by Disqus
↑ Back to top | Tablatures and chords are parodies/interpretations of the original songs. You may use it for private study, scholarship, research or language learning purposes only