» » »

Bad Boy Tabs (ver.2)

Artists:  A B C D E F G H I J K L M N O P Q R S T U V W X Y Z # 

Bad Boy Tabs (ver.2)

P Diddy
Rating:
0/5 (0 votes)

Hard to play? Try these video lessons and learn fast.
                INTRO (PLAY ONE TIME):

e|----------------------------
H|----------------------------
G|----------------------------
D|----------------------------
A|---0-4-2-0-4-2-0-4----------
E|-2--------------------------


REST OF THE SONG (ALWAYS REPEAT):

e|-------------------------------------------------------------
H|-------------------------------------------------------------
G|-------------------------------------------------------------
D|-------------------------------------------------------------
A|--------12-9--7-9--7-4--4-2-4--4-4-2-0-----------4-2-0-------
E|-2-2----------------------------------------2-2---------2-0-2
            
Hard to play? Try these video lessons and learn fast. | Correct




comments powered by Disqus
↑ Back to top | Tablatures and chords are parodies/interpretations of the original songs. You may use it for private study, scholarship, research or language learning purposes only