>
 >
 >
Sunflower

Sunflower Guitar Tabs

Paw - Sunflower chords, tabs, tablatures, lyrics

Guitar lessons | Add/correct | Request | Top 50 tabs Artists:  A B C D E F G H I J K L M N O P Q R S T U V W X Y Z 0-9

Sunflower Guitar Tabs – Paw

CD, Sheet music, Poster

Do you like Sunflower? Share with your friends now
Tabs
PAW
Death to Traitors
Anthony DePiano

I posted the introduction that Sean Malle tabbed from
I play mine differently so I tabbed that too.

Standard Tuning - eBGDAE

Legend
/ = slide
. = palm mute
~ = vibrato (let note or chord ring)
p = pull-off
() = can play note but you don't have to
? = not sure if this is how to play it


Sean Malle's intro and verse
e-------------|-3--|-------------|-------------|-------------|-------|
B-------------|-3--|-------------|-------------|-------------|-------|
G-------------|-0--|-------------|-------------|-------------|-------|
D-------------|-0--|-3---3---3-3-|-3---3---3-3-|-3---3---3-3-|-3---3-|
A-5/4---5-5-2-|-2--|-1-1-1-1-1p0-|-1-1-1-1-1p0-|-1-1-1-1-1p0-|-1-1-1-|
E-3/2-0-3-3-0-|-3--|-------------|-------------|-------------|-------|
      .                .   .         .   .         .   .         .

My version of the intro and verse
e-------------|-3~-|------------|------------|------------|------------|
B-------------|-3~-|------------|------------|------------|------------|
G-------------|-0~-|------------|------------|------------|------------|
D-------------|-0~-|-3--3-3-3-3-|-3--3-3-3-3-|-3--3-3-3-3-|-3--3-3-3-3-|
A-5/4---5-5-2-|-2~-|-1--1-0-1-0-|-1--1-0-1-0-|-1--1-0-1-0-|-1--1-0-1-0-|
E-3/2-0-3-3-0-|-3~-|------------|------------|------------|------------|
                          .....        .....        .....
THEN
e-(0--0--0-0-0-0--0--0-0-0-0--0--0-0-0-0--0-0-0-0-0---|- <- The opens in
B--3--3--3-3-3/4--4--4-4-4/6--6--6-6-6/8--8-8-8-8-8---|  parenthesis can
G--2--2--2-2-2/3--3--3-3-3/5--5--5-5-5/7--7-7-7-7-7---|  be played but
D--0--0--0-0------------------------------------------|  don't have to
A-----------------------------------------------------|
E-----------------------------------------------------|
Note: The notes in the chords here can also be plucked if you want
to. It's hard to tell if Grant does pluck single notes at times.


THEN REPEAT THIS AGAIN
e------------|------------|------------|------------|
B------------|------------|------------|------------|
G------------|------------|------------|------------|
D-3--3-3-3-3-|-3--3-3-3-3-|-3--3-3-3-3-|-3--3-3-3-3-|
A-1--1-0-1-0-|-1--1-0-1-0-|-1--1-0-1-0-|-1--1-0-1-0-|
E------------|------------|------------|------------|
                    .....        .....        .....

e-(0--0--0-0-0-0--0--0-0-0-0--0--0-0-0-0--0-0-0-0-0)-|
B--3--3--3-3-3/4--4--4-4-4/6--6--6-6-6/8--8-8-8-8-8--|
G--2--2--2-2-2/3--3--3-3-3/5--5--5-5-5/7--7-7-7-7-7--|
D--0--0--0-0-----------------------------------------|
A----------------------------------------------------|
E----------------------------------------------------|


e------------|------------|------------|------------|
B------------|------------|------------|------------|
G------------|------------|------------|------------|
D-3--3-3-3-3-|-3--3-3-3-3-|-3--3-3-3-3-|-3--3-3-3-3-|
A-1--1-0-1-0-|-1--1-0-1-0-|-1--1-0-1-0-|-1--1-0-1-0-|
E------------|------------|------------|------------|
       .....        .....        .....        .....

CHORUS
e-----------------------------------------------------|
B-----------------------------------------------------|
G----------Notes  on the D string are optional--------| Play
D(2--2-2-2-2-3--3-3--3-3-2-2--2-2--2-2-5-5--5-5--5-5)-| Three
A-2--2-2-2-2-3--3-3--3-3-2-2--2-2--2-2-5-5--5-5--5-5--| Times
E-0--0-0-0-0-1--1-1--1-1-0-0--0-0--0-0-3-3--3-3--3-3--|
  "Unless I'll make you somehow know I feel the same"

Fourth Time
e-----------------------------------------|
B-------------------------3--3-3-3-3-3-3--|
G-------------------------2--2-2-2-2-2-2--|
D-------------------------0--0-0-0-0-0-0--|
A-2--2-2--2-2-4--4-4--4-4-----------------|
E-0--0-0--0-0-2--2-2--2-2-----------------|

Play verse and chorus again
THEN
BRIDGE - this is kind of confusing - question marks are
         above where I'm not sure

FIRST PART                    ????????
e-3-3-----3-----3-----3-----|----------|
B-3---3-----3-----3-----3---|-5/8b~-\7-|
G-0-----0-----0-----0-----0-|----------|
D---------------------------|----------|
A---------------------------|----------|
E---------------------------|----------|

SECOND PART (1)
e-3-3-2-3-2--5-3-2-3-2-0-3-2-0-3---------|
B-3--------------------------------------|
G-0--------------------------------------|
D---------------------------------   <---|
A---------------------------------    ---|
E---------------------------------    ---|
Play the xxx033 right as Mark finishes |
saying "and you won't shut up"         |
                                       |
SECOND PART (2)                        |
Chords - same part as above  ----------

e-3-3-2-3-2--5-3-2-3-2-0-3-2-0-3--|
B-3-3-3-3-3--3-3-3-3-3-3-3-3-3-3--|
G-0-------------------------------|
D---------------------------------|
A---------------------------------|
E---------------------------------|
I can't tell if they're notes or chords so I put both

THIRD PART - same as second part but with second guitar
             playing something like this.
 ????????????????????????????????
e----------------|------------------|
B--7b8b7---------|---5/7b/-9b-------|
G--------7b8r7---|------------------|
D----------------|---This one-------|
A----------------|---comes later----|
E----------------|------------------|

FOURTH PART - same as second again

Part with wah-wah solo
e----------------------------------|
B----------------------------------|
G----------------------------------| Play that for
D----------------------------------| as many times
A--5--5-5-5-5-5-5-5--5-5-5-5-5-5---| as necessary
E--3--0-3-0-3-0-0-3--0-3-0-3-0-0---|

CHORUS AGAIN

VERY END - hard to tell what he's playing but I think it's this.
e---------------------|--------Play-----------|
B---------------------|-----Three times-------|
G----------------FAST-|-----------------------|
D-(2)----(3)--(2)-(5)-|----(2)---(3)--(2)-(5)-|
A--2------3----2---5--|-----2-----3----2---5--|
E--0--0-0-1-0--0-0-3--|-0-0-0-0-0-1-0--0-0-3--|
      . .   .    .      . .   . .   .    .

I suggest playing with your ring finger for the 02xxxx and your
first and third finger for the 13xxxx so you can move it quickly

I'm not sure what chords are played after this where Mark sings
"Give a little garden for the growing seeds
There's gotta be someone who'll pull the weeds"
The end is being played with a wah-wah pedal.
It does sound like the chorus is played again under the wah-wah.
e----------------------------------------------------|
B----------------------------------------------------|
G----------------------------------------------------|
D----------------------------------------------------|
A-2--2-2-2-2-3--3-3--3-3-2-2--2-2--2-2-5-5--5-5--5-5-|
E-0--0-0-0-0-1--1-1--1-1-0-0--0-0--0-0-3-3--3-3--3-3-|





Comments


Popular Paw tabs & chords
Bridge Tabs
Built Low Tabs
Couldnt Know Tabs
Gasoline Tabs
Jessie Tabs
No Such Luck Tabs
Pansy Tabs
Pansy 1 Tabs
Sleeping Bag Tabs
Sleeping Bag (Intro) Tabs


Song lyrics



↑ Back to top | Tablatures and chords are parodies/interpretations of the original songs. You may use it for private study, scholarship, research or language learning purposes only
© 2014 AZChords.com Contact us | Privacy policy | DMCA | Add/correct tabs | Request tabs | Top 50 tabs