>
 >
Platform Blues

Platform Blues Guitar Tabs

Pavement - Platform Blues chords, tabs, tablatures, lyrics

Guitar lessons | Add/correct | Request | Top 50 tabs Artists:  A B C D E F G H I J K L M N O P Q R S T U V W X Y Z 0-9

Platform Blues Guitar Tabs – Pavement

CD, Sheet music, Poster

Do you like Platform Blues? Share with your friends now
Tabs

Tuning: DADF#BE


Intro:

E |-----------------------------------------------------------9-----|
B |---------------12--10----------12--10----------12--10--12----10--|
F#|-----12--10----10-----12--10---10-----12--10---10------12--------|
D |-9---12---9----------------9---------------9---------------------|
A |-9--------9------------------------------------------------------|
D |-9---------------------------------------------------------------|
    Cardiac  kid  kinda like it   kinda like it   cardiac kid don't


E |-------------9-----------------------9------------------------------------|
B |-7-----7-------7---10-----7-----7------7---10-----7-----7-----7-----7-----|
F#|---0-----0------------0-----0-----0-----------0-----0-----0-----0-----0---|
D |--------------------------------------------------------------------------|
A |------------------------0-------------------------------------------------|
D |-9---9-----9-----9-----------7-----7-----7------0-6---6-----6-----6-----0-|
   Go           chro - no  - lo    -    gi  -  cal   on          all your


E |-------------------------------------------0--------------------------|
B |-3-----3-----5-----5-----7-----7-0---3-----------3-----3-----0--------|
F#|---0-----0-----0-----0-----0-----------0-----0-----0-----0------------|
D |----------------------------------------------------------------------|
A |----------------------------------------------------------------------|
D |-2---2-----2-----2-----0-0---0-----0-----0-----0-2---2-----2-----2--0-|
    Friends     first you'll cause      accidents               raise the


E |-------------5-----5-----------------5-----5-----------------5-----5----|
B |-7-----7-------7-----7---7-----7-------7-----7---7-----7-------7-----0--|
F#|---5-----5-----------------5-----5-----------------0-----0--------------|
D |------------------------------------------------------------------------|
A |------------------------------------------------------------------------|
D |-5---5-----5-----5-----5-6---6-----6-----6-----0-7---7-----7-----7------|
    Roof        make us     tense        follow     through     to  the


E |-------------0-----0-----------------------------|
B |-7-----7-------7-----7---8-----7-----5-----7-----|
F#|---0-----0-----------------0-----0-----0-----0---|
D |-------------------------------------------------|
A |-------------------------------------------------|
D |-8---8-----8-----8-----8-9---9-----9-7---7-----7-|
   End          and  we'll  rip  the   heart  out


E |-------------------------------------------------|
B |-3-----3-----3-----3-----0-----0-----------------|
F#|---0-----0-----0-----0-----0-----0---3-----3-----|
D |---------------------------------------0-----0---|
A |-------------------------------------------------|
D |-2---2-----2-----2-----2-----2-----2-----2-----2-|
    From                    the         de -


                    Harmonica Solo

then:

E |-----------------------------------------------------|
B |-----------------------------------------------------|
F#|-------8-----------8-----------------------------8-0-|
D |-9--9----9-7-9--9----9-7-6--6-6-6-6-7-6--6-6-7-9-----|
A |-9---------------------------------------------------|
D |-9---------------------------------------------------|


E |---------------------------------------------------------9----|
B |----------------12--10---------12--10---------12--10-------10-|
F#|----12-12--10---10-----12--10--10-----12--10--10-----12-------|
D |-9--12-12---9---------------9--------------9------------------|
A |-9------------------------------------------------------------|
D |-9------------------------------------------------------------|


E |---------------------------------------------------|
B |---------------------------------------------------|
F#|---------------------------------------------------|
D |-9---9------7---7------6---6------6---6-6-6-6-6-6--|
A |-9---9------7---7------6---6------6---6-6-6-6-6-6--|
D |-9---9------7---7------6---6------6---6-6-6-6-6-6--|


E |-----------------------------------------------------------------------|
B |---------10-12--10--12-12-12-10-12--10-12--10---12--10-12--12b14-12-10-|
F#|-----12--10-10--10--10-10-10-10-10--10-10--10---10--10-10--------10-10-|
D |-9---12----------------------------------------------------------------|
A |-9---------------------------------------------------------------------|
D |-9---------------------------------------------------------------------|


E |-----------------------------|---------------------------|
B |-----------------------------|---------------------------|
F#|-----------------------------|---------------------------|
D |-0--2--7--0-9--9-9-9-9-9-9-9-|-0--2--7--0-9--9-9-9-9-9-0-|
A |-0--2--7--0-9--9-9-9-9-9-9-9-|-0--2--7--0-9--9-9-9-9-9-0-|
D |-0--2--7--0-9--9-9-9-9-9-9-9-|-0--2--7--0-9--9-9-9-9-9-0-|


E |----------------------------------------------------------------|
B |----------------------------------------------------------------|
F#|----------------------------------------------------------------|
D |-7---7-7-7-6-6---5---5-5-5-7-7-7-9---9-9-9-9-9-9-9-9-9-9-9------|
A |-0---0-0-0-2-2---5---5-5-5-7-7-7-9---9-9-9-9-9-9-9-9-9-9-9------|
D |-0---0-0-0-2-2---5---5-5-5-7-7-7-9---9-9-9-9-9-9-9-9-9-9-9------|


E |-----2-0----------------------------7---7-------7---|
B |---------3---5--------------7---7-----------6/7---0-|
F#|---0-------------8------------0---0---0---0---------|
D |-----------------5--9-------------------------------|
A |-2---------0-----5--6--9--------------------4/5-----|
D |---------------0----6--6----5---5---6---6-----------|
    The lion reaps his own reward...


E |-----2-0-------------------|----------------------------|
B |---0-----3---5-------------|----------------------------|
F#|-----------0-----8---------|----------------------------|
D |-----------------5--9------|------------------11-12-11--|
A |-2---------------5--6--9---|--5-5-5-5-5-5-5-5-11-12-11--|
D |---------------0----6--6---|--5-5-5-5-6-6-6-6-11-12-11--|
    You're a nice guy...         Thanks to people like you...


E |------------------------------------------------------------|
B |------------------------------------------------------------|
F#|------------------------------------------------------------|
D |-9-9-9-9-7-7-7-7---------------------------------11-12-11---|  (x2)
A |-9-9-9-9-7-7-7-7-7-7-7-7-4-4-4-4-4-4-4-4-4-4-4-4-11-12-11---|
D |-9-9-9-9-7-7-7-7-6-7-6-6-4-4-4-4-5-5-5-5-6-6-6-6-11-12-11---|


E |--------------------------------------------------------------|
B |--------------------------------------------------------------|
F#|--------------------------------------------------------------|
D |-16----14---14-14-14--11----11--9-11--9-11--9-11--9-----------|(x2)
A |-14----12---11-12-11---9----10-10-10-10-11-11-11-11--11-12-11-|
D |-----------------------------------------------------11-12-11-|
    Mandrake versus the snake...
    But my stolen wild orchids got cut...


E |------------------------------------------------------------|
B |------------------------------------------------------------|
F#|------------------------------------------------------------|
D |-9-9-9-9-7-7-7-7---------------------------------11-12-11---|  (x2)
A |-9-9-9-9-7-7-7-7-7-7-7-7-4-4-4-4-4-4-4-4-4-4-4-4-11-12-11---|
D |-9-9-9-9-7-7-7-7-6-7-6-6-4-4-4-4-5-5-5-5-6-6-6-6-11-12-11---|
    It's got the right to sit on that face...
    I've got the right to sit on that face...


E |----14-12-10--12--12-12-10--10-10\7--7-7\-0---0-/7*------/19*---|
B |-12-------------------------------------------------------------|
F#|----------------------------------------------------------------|
D |----------------------------------------------------------------|  (x2)
A |----------------------------------------------------------------|
D |----------------------------------------------------------------|
                                                     *tremelo pick

E |-/7*---/7*---/7*-/7*-/7*---|
B |---------------------------|  (x3)
F#|---------------------------|
D |---------------------------|
A |---------------------------|
D |---------------------------|


E |-----------------------------------------------------------------|
B |-----------------------------------------------------------------|
F#|-----------------------------------------------------------------|
D |-5-5-5-5-6-6-6-6-7-7-7-7-8-8-8-8-9-9-9-9-10-10-10-10-11-11-11-11-|
A |-5-5-5-5-6-6-6-6-7-7-7-7-8-8-8-8-9-9-9-9-10-10-10-10-11-11-11-11-|
D |-5-5-5-5-6-6-6-6-7-7-7-7-8-8-8-8-9-9-9-9-10-10-10-10-11-11-11-11-|


E |-------------------------------------------------------------------------|
B |-15-12-10-12-/15-12-10-12-7--5--3----/15-12-10-12-/15-12-10-12-5--3--3---|
F#|-------------------------------------------------------------------------|
D |-------------------------------------------------------------------------|
A |-------------------------------------------------------------------------|
D |-------------------------------------------------------------------------|
    [Play twice]


E |-------------------------|
B |-------------------------|
F#|-------------------------|
D |-------------------------|
A |-13-12-13-12-13-12-13-12-|  repeat, etc...
D |-12-12-12-12-12-12-12-12-|
   Palm mute, gradually slow down





Comments


Popular Pavement tabs & chords
Shady Lane Bass Tabs
Range Life Chords
Father To A Sister Of Thought Tabs
Gold Sounds Tabs
Trigger Cut Tabs
We Dance Tabs
Baptist Blacktick Ukulele
Elevate Me Later Ukulele
Shady Lane Ukulele
Stop Breathing Ukulele


Song lyrics



↑ Back to top | Tablatures and chords are parodies/interpretations of the original songs. You may use it for private study, scholarship, research or language learning purposes only
© 2014 AZChords.com Contact us | Privacy policy | DMCA | Add/correct tabs | Request tabs | Top 50 tabs