>
 >
Perfume - V 1

Perfume - V 1 Guitar Tabs

Pavement - Perfume - V 1 chords, tabs, tablatures, lyrics

Guitar lessons | Add/correct | Request | Top 50 tabs Artists:  A B C D E F G H I J K L M N O P Q R S T U V W X Y Z 0-9

Perfume - V 1 Guitar Tabs – Pavement

CD, Sheet music, Poster

Do you like Perfume - V 1? Share with your friends now
TabsTabs v2
Okay, so the previous guy seemed to be on the right track here.  I wouldn't call this
exact, but it sounds pretty decent to my ears...

This is most likely played in CGDGBE, as is most or all of Slanted/Enchanted.  Drop your
low E two steps to a C (4 notes) by lowering its pitch until it sounds the same fretted
on the 9th fret as your A does open.  Then, drop your A one step to a G by lowering its 
pitch until it sounds the same fretted on the 7th fret as your D does open.  Or, use a
tuner.  You might have to anyway, because dropping the pitch and tension that much on 
the two strings will throw your guitar out of tune, and make everything sound crappy.

I'm tabbing Stephen Malkmus' parts.  The structure is Intro - Verse - Chorus - Verse -
Chorus - Bridge - Outro

Intro/Outro:
E|---------------------------------|
B|---------------------------------|
g|---------------------------------|
D|-2-2-2--7-7-7-7-7-7--5-5-7-2-2-2-|
G|-4-4-4--9-9-9-9-9-9--7-7-9-4-4-4-|
C|-4-4-4--9-9-9-9-9-9--7-7-9-4-4-4-|
     E         A        G* A   E
Stephen Malkmus plays these chords with some gritty distortion, and Spiral Stairs plays
harmonics to get the chimey sound on top of it.  If anyone feels industrious enough to
tab those out, more power to you.  The G with an asterisk could possibly be an F# 
(4th/6th frets).  I'm not sure.


Verse:
E|----------------------------------------------------|
B|-0----------------------0-0-0-0-0-------------------|
g|-0----------------------0-0-0-0-0-------------------|
D|-2-2-2-2-2-2-2-2--3-3-3-3-3-3-3-3--5-5-5-5--7-7-7-7-|
G|-4-4-4-4-4-4-4-4--5-5-5-5-5-5-5-5--7-7-7-7--9-9-9-9-|
C|-4-4-4-4-4-4-4-4--5-5-5-5-5-5-5-5--7-7-7-7--9-9-9-9-|
         E                F             G        A
Let those higher strings ring out when you play the F, and go up into a C before you
play the chorus (either go up 3 frets from an A to the 10th and 12th frets, or play the
middle 4 strings on the 5th fret...).  **The 0s that you see are part of a G chord that 
the second guitar plays during the verse.  If you're playing it by yourself, it will sound
most like the song if you add those notes as tabbed.**


Chorus:
E|--------------------------------------------------------------------------|
B|--------------------------------------------------------------------------|
g|--------------------------------------------------------------------------|
D|-5-5-5-5-5-5-5-5--3-3-3-3-3-3-3-3-3-3-3-3-3-3-3-3--10-10-10-10-10-10-10-10|
G|-7-7-7-7-7-7-7-7--5-5-5-5-5-5-5-5-5-5-5-5-5-5-5-5--12-12-12-12-12-12-12-12|
C|-7-7-7-7-7-7-7-7--5-5-5-5-5-5-5-5-5-5-5-5-5-5-5-5--12-12-12-12-12-12-12-12|
        G                          F                           C
 She's got the radio active and it makes me feel okay, I don't feel okay...

You can also play the C like this:
E|---|
B|-5-|
g|-5-|
D|-5-|
G|-5-|
C|---|
You could even play the bottom C string open in addition to those, but that might make
it sound a tad off.  It's probably easiest to mute it and the high E.


Bridge (If you can call it that... played over chorus chords):
D|--0--0--0--3--5----------0--0--0--3--5---------0--0--0--3--5--------|
    Like a damsel's spit, Like a docent's lisp, Like a dry gin's twist...
You only need these notes on the one string.  It repeats twice.

Play the Intro again, and you're done.  Voila.  The hardest part is tuning your guitar
correctly, and keeping it in tune.  Otherwise it's a pretty basic song.





Comments


Popular Pavement tabs & chords
In The Mouth Of A Desert Bass Tabs
Stereo Bass Tabs
Gold Soundz 1 Chords
Same Way Of Saying Chords
The Killing Moon Chords
Brinx Job Tabs
Hexx Intro Tabs
Two States Tabs
Ann Dont Cry Ukulele
Debris Slide Ukulele


Song lyrics



↑ Back to top | Tablatures and chords are parodies/interpretations of the original songs. You may use it for private study, scholarship, research or language learning purposes only
© 2014 AZChords.com Contact us | Privacy policy | DMCA | Add/correct tabs | Request tabs | Top 50 tabs