» » »

Pavement, Loretta's Scars Tabs (ver.2)

Artists:  A B C D E F G H I J K L M N O P Q R S T U V W X Y Z # 

Loretta's Scars Tabs (ver.2)

Pavement Tabs
 Rating:
4/5 (4 votes)
Loretta's Scars lessons Tabs too difficult? Try these video lessons and learn fast
1
                "(1)
-------------------------------------------------------------------------------
                             LORETTA'S SCARS - Pavement
-------------------------------------------------------------------------------

Tuning: Standard

Alright, I had a little help with this one. My friend and I did this to the best of our
ability, but we couldn't figure it out in the traditional S+E tuning (CGDGBE), so its in
standard. Nonetheless, it sounds about right. Credit for the solo goes to my friend who 
assisted me greatly.

Intro/Verse/Chorus

Guitar 1
e|---------------------------------------------------------------------------|
B|---------------------------3----3---3-3/6-6----6----6----------------------|
G|-3---3-3---5-5---5--5------3----3---3-3/7-7----7----7----------------------|
D|-3---3-3---5-5---5--5------5----5---5-5/8-8----8----8----------------------|
A|-3---3-3---3-3---3--3------5----5---5-5/8-8----8----8----------------------|
E|---------------------------------------------------------------------------|

Guitar 2 (Chorus Only)

e|---------------------------------------------------------------------------|
B|---------------------------------------------------------------------------|
G|---------------------------------------------------------------------------|
D|-3--3---3----3-3---3----3---3---3----3--3--3--3---3--3--3--3--3------------|
A|--------------------------------------------------1--1--1--1--1------------|
E|-1—-1---1----1-1---1----1---1---1----3--3--3--3----------------------------|

Bridge (From now on...)

Guitar 1

e|---------------------------------------------------------------------------|
B|---------------------1--11--11---1-1--1-11--11--1--1---8--88--88--8--8-----|
G|-3---3--33--33--3-3--2--22--22---2-2--2-22--22--2--2---8--88--88--8--8-----|
D|-3---3--33--33--3-3--3--33--33---3-3--3-33--33--3--3---8--88--88--8--8-----|
A|-3---3--33--33--3-3--0--00--00---0-0--3-33--33--3--3---6--66--66--6--6-----|
E|---------------------------------------------------------------------------|

Guitar 2

e|-----------------------------------------------------------------------------|
B|-----------------------------------------------------------------------------|
G|-----------------------------------------------------------------------------|
D|-3-3---3---3-3--3-3--3-3--3-3--3-3--3-3--3-3--3--3-3--3-3--3-3--3-3--3-------|
A|-1-1---1---1-1--1-1--1-1--0-0--0-0--0-0--0-0--0------------------------------|
E|-------------------------------------------------1-1--1-1--1-1--1-1--1-------|

e|-----------------------------------------------------------------------------|
B|-----------------------------------------------------------------------------|
G|-----------------------------------------------------------------------------|
D|-3-3--3-3--3-3--3-3--3-------------------------------------------------------|
A|-6-6—-6-6--6-6--6-6--6--------------------------------------------------------|
E|-----------------------------------------------------------------------------|

SOLO

Guitar 2


e|---------------------------------------------------------------------------|
B|-0-7-------5---5--3---5-3-2-----2----3--3---5--5--7-7-7-7-7-7-7--5-5-5-----|
G|---------------------------------------------------------------------------|
D|---------------------------------------------------------------------------|
A|---------------------------------------------------------------------------|
E|---------------------------------------------------------------------------|

e|-4----4--3---3-3-3--3--3--3--3--3-3-3///////-------------------------------|
B|---1--1--1---1-1-1--1--1--1--1--1-1-1///////8------------------------------|
G|---------------------------------------------------------------------------|
D|---------------------------------------------------------------------------|
A|---------------------------------------------------------------------------|
E|---------------------------------------------------------------------------|

(Pick very fast and slide up to 8 on the B string, then hold the 8)

SOLO 2 (CLOSING SOLO)

e|----------------------------6--5---6-5---8----8-6-5-5-6-5-6-5-5-6-8--------|
B|-8--6-------6-8-9-8----6-8-------------------------------------------------|
G|---------------------------------------------------------------------------|
D|---------------------------------------------------------------------------|
A|---------------------------------------------------------------------------|
E|---------------------------------------------------------------------------|

e|-5-6-5-8-5-6-5-8---11--11--9----9-8--5---5---------------------------------|
B|-----------------------------------------------6--8-----6------------------|
G|---------------------------------------------------------------------------|
D|---------------------------------------------------------------------------|
A|---------------------------------------------------------------------------|
E|---------------------------------------------------------------------------|

I'm not very good at typing out timing, but I can guarantee all those notes are correct.

Enjoy!
"            
Submit corrections

comments powered by Disqus
↑ Back to top | Pavement Tabs for Loretta's Scars. Lyrics for acoustic guitar and electric guitar. 1 Tablatures and chords are parodies/interpretations of the original songs. You may use it for private study, scholarship, research or language learning purposes only