» » »

Kennel District Tabs (ver.1)

Artists:  A B C D E F G H I J K L M N O P Q R S T U V W X Y Z # 

Kennel District Tabs (ver.1)

Pavement
Rating:
5/5 (2 votes)

Hard to play? Try these video lessons and learn fast.
                -------------------------------------------------------------------------------
-------------------------------------------------------------------------------

Tuning:Drop D (DADGBE)

It's very simple, there's only really two distinct parts to it.

  Rhythm Guitar Section (Thoughout song)
e|---------------------------------------------------------------------------|
B|---------------------------------------------------------------------------|
G|---------------------------------------------------------------------------|
D|--7-7-x-0~--0-x-9~--9-x-0~--0----------------------------------------------|
A|--7-7-x-0~--0-x-9~--9-x-0~--0----------------------------------------------|
D|--7-7-x-0~--0-x-9~--9-x-0~--0----------------------------------------------|

  Lead Guitar Section (Why Didn't I Ask?)
e|---------------------------------------------------------------------------|
B|-15----14-15~-----14-15~-----14-15~-----14-15------------------------------|
G|----14---------14---------14---------14------------------------------------|
D|---------------------------------------------------------------------------|
A|---------------------------------------------------------------------------|
D|---------------------------------------------------------------------------|
  Or as they played it live
e|---------------------------------------------------------------------------|
B|---------------------------------------------------------------------------|
G|-7---6-7~----6-7~----6-7~---6-7--------------------------------------------|
D|---7-------7-------7------7------------------------------------------------|
A|---------------------------------------------------------------------------|
D|---------------------------------------------------------------------------|

| ~  vibrato
| x  Mute note
===============================================================================
            
Hard to play? Try these video lessons and learn fast. | Correct




comments powered by Disqus
↑ Back to top | Tablatures and chords are parodies/interpretations of the original songs. You may use it for private study, scholarship, research or language learning purposes only