» » »

Pavement, In The Mouth A Desert Tabs (ver.1)

Artists:  A B C D E F G H I J K L M N O P Q R S T U V W X Y Z # 

In The Mouth A Desert Tabs (ver.1)

Pavement Tabs
 Rating:
3.7/5 (6 votes)
In The Mouth A Desert lessons Tabs too difficult? Try these video lessons and learn fast
1
                PAVEMENT: 
IN THE MOUTH OF A DESERT

INTRO:
      
e|--3-0-----------------0-0-0-0--2-2-2-2-0-0--|
B|--0---0-3-3--0~-[0----4-4-5-5--3-3-3-3-3-3--|
G|--0----------3~----3]-5-5-5-5--5-5-5-5-5-5--|
D|--0----------4~-------5-5-5-5--0-0-0-0-0-0--|
A|--0----------2~-------3-3-3-3--x-x-x-x-x-x--|
E|--3----------------------------3-3-3-3-3-3--|
    
                               *          [Play x 2]
e|--3-0----------------0-0-0-[-2-2-2-2-2-2-2-2-0-0-0-0-0-0-0-0-]--|
B|--0---0-3-3--0~-[0]--4-4-5-[-3-3-3-3-3-3-3-3-3-3-3-3-3-3-3-3-]--|
G|--0----------3~-[3]--5-5-5-[-5-5-5-5-5-5-5-5-5-5-5-5-5-5-5-5-]--|
D|--0----------4~------5-5-5-[-0-0-0-0-0-0-0-0-0-0-0-0-0-0-0-0-]--|
A|--0----------2~------3-3-3-[-x-x-x-x-x-x-x-x-x-x-x-x-x-x-x-x-]--|
E|--3------------------------[-3-3-3-3-3-3-3-3-3-3-3-3-3-3-3-3-]--|
                               *
A second guitar plays
roughly the following 
at the asterisks:

G|--4s7s5-4-2--| x 4


VERSE/CHORUS, etc.:

C5, E5, G5, B5 (more or less throughout the whole song)

C could play be played instead of C5
Em could be played instead of E5
G could be played instead of G5
B could be played instead of B5 


SOLO:

       [Play x 3]                       **
e|--[-------------10-]-10-10b12r10-8-7-[10]--|
B|--[-7-8-7-8-7-8----]-----------------------|
G|-------------------------------------------| Play x 2
D|-------------------------------------------| 
A|-------------------------------------------|
E|-------------------------------------------|

** Played only the second time


OUTRO SOLO:

       [Play x 3]              
e|--[-------------10-]-10-10b12r10-8-7--|
B|--[-7-8-7-8-7-8----]------------------|
G|--------------------------------------| 
D|--------------------------------------| 
A|--------------------------------------|
E|--------------------------------------|

      [Play x 2]                   
e|--[-------------10-]---------------------------------------|
B|--[-7-8-7-8-7-8----]-7-8-7-8-7-8-7-8-7-8-7-8-7-8-7-8-7-8---|
G|-----------------------------------------------------------| 
D|-----------------------------------------------------------| 
A|-----------------------------------------------------------|
E|-----------------------------------------------------------|

e|--------------------------------------------------|
B|-s10-10-10-8-7-1012b10---8s10-10-10-10-8-7-7-8-7--|
G|--------------------------------------------------|
D|-----------------------9~-------------------------|
A|--------------------------------------------------|
E|--------------------------------------------------|

e|-------------------------------------------------------------|
B|--7-8-7-10-10-10-8-7-10-10-10-10-8-7-10-10-8-7-10-10-10-8-7--|
G|-------------------------------------------------------------|
D|-------------------------------------------------------------|
A|-------------------------------------------------------------|
E|-------------------------------------------------------------|

...

ETC.!

Tabbing lead lines by Pavement is pointless and difficult. 
It's too random and messy to matter. Improvise in G Major.
            
Submit corrections

comments powered by Disqus
↑ Back to top | Pavement Tabs for In The Mouth A Desert. Lyrics for acoustic guitar and electric guitar. 1 Tablatures and chords are parodies/interpretations of the original songs. You may use it for private study, scholarship, research or language learning purposes only