>
 >
Half A Canyon

Half A Canyon Guitar Tabs

Pavement - Half A Canyon chords, tabs, tablatures, lyrics

Guitar lessons | Add/correct | Request | Top 50 tabs Artists:  A B C D E F G H I J K L M N O P Q R S T U V W X Y Z 0-9

Half A Canyon Guitar Tabs – Pavement

CD, Sheet music, Poster

Do you like Half A Canyon? Share with your friends now
Tabs
Half a Canyon

Tuning: Standard tuning


Intro (0:00):

E|--------------------------------------------------------------------------|
B|--------------------------------------------------------------------------|
G|-0h1----1------2p0---0h1----1-------0h1----1------2p0---0h1----1------2p0-|
D|-2------2------2p0---2------2-------2------2------2p0---2------2------2p0-|
A|--------2-------------------2--------------2-------------------2----------|
E|-----0-------------------0--------------0-------------------0-------------|


E|--------------------|---------------------------|
B|--------------------|---------------------------|
G|-0h1----1------2p0--|---------------------------|
D|-2------2------2p0--|---------------5b7--7b9----|
A|--------2-----------|---------------------------|
E|-----0--------------|--0------------------------|
     [Play 4 times]            [Play twice]



Verse (0:42, 1:26):

E|--------------------------------------------------------|
B|-----------------------------------------------------5--|
G|--------1------1----1----1-------1-----------------4----|
D|--------2------2----2----2-------2----------2-4-/6------|
A|--------2------2----2----2-------2------2-4-------------|
E|--0--0-----------0---------0--0-------------------------|


E|----------------------------------------------------------|
B|--------5---5---5---5-------------------------------------|
G|----------4---4---4---4-----------------------------------|
D|------------------------6-4-2-4-/6-2--------------6-4-2-4-|
A|----------------------------------------------------------|
E|--0--0--------------------------------0---0-0--0----------|


E|------------------------------------------------|
B|------------------------------------------------|
G|---------------5----5--x-x--5--x-x--5-----5-----|
D|---------------5----6--x-x--6--x-x--6-----6-----|
A|--0----2--3----3----6--x-x--6--x-x--6-----6-----|
E|--------------------4--x-x--4--x-x--4--0--4--0--|


E|-------------------------------------------------------------------------|
B|-------------------------------------------------------------------5-----|
G|------------------------------------5-4b5----------------------5-7---7b9-|
D|------------------------------2-3-5-------5-3---2-3-4-----5-7------------|
A|--7--7--9--9---2--2--2--2---3-----------------2-------5-7----------------|
E|--5--5--5--5---0--0--0--0------------------------------------------------|


E|----------------------------------------|
B|----------------/12----12----/17\-/17\--|
G|-9vvvvvvvvvvvvv-----13----13------------|
D|----------------------------------------|
A|----------------------------------------|
E|----------------------------------------|


E|-----------------------------------------|
B|------------------/8\--/12\--/17\--/12\--|
G|-9vvvvvvvvvvvvv\-------------------------|
D|-----------------------------------------|
A|-----------------------------------------|
E|-----------------------------------------|



Bridge (1:56):

E|-------------------------------------|
B|-------------------------------------|
G|--9----------------7---6-------------|
D|------6--7--8--9-----------9---8h9-6-|
A|-------------------------------------|
E|-------------------------------------|
            [Play 4 times]


E|------------0-----0---------|
B|-----5----5---5-5---5-3b-0--|
G|---4------------------------|
D|-2--------------------------|
A|----------------------------|
E|----------------------------|
    [Play 4 times, ad-lib]



Outro (2:51):

E|-----------------------------------|
B|-----------------------------------|
G|--16----------------15---15-15--15-|
D|--14----------------14---14-14--14-|
A|--14----------------14---14-14--14-|
E|---0-------------------------------|
             [Play 6 times]


E|--------------------------------------------------------------------------|
B|--------------------------------------------------------------------------|
G|-----16---------------16---------------16---------------------------------|
D|-14------14--------14-----14--------14-----14-----16p14h16p14h16p14h16p14-|
A|-------------14---------------14---------------14-------------------------|
E|--------------------------------------------------------------------------|
                               [Play twice]


E|-----------------------------------------------------------------|
B|-3-3-3-3-3-3-3-3-2-2-2-2-2-2-2-2-0-0-0-0-0-0-0-0-----------------|
G|-----------------------------------------------------------------|
D|--------------------------------------------------2-2-0-2---2-0--|
A|-----------------------------------------------------------------|
E|-----------------------------------------------------------------|
                          [Play twice]


E|------------------------------------------------------------||
B|------------------------------------------------------------||
G|------------------------------------------------------------||
D|------------------------------------------------------------||
A|-7----------------------------------------------------------||
E|-0----------------------------------------------------------||
                                         jam till the end...





Comments


Popular Pavement tabs & chords
Stereo 2 Bass Tabs
Baptist Blacktick Chords
Range Life Tabs
We Dance Tabs
Cut Your Hair Ukulele
Gold Soundz Ukulele
The Killing Moon Ukulele
We Dance Ukulele
You Are A Light Ukulele
Zurich Ukulele


Song lyrics



↑ Back to top | Tablatures and chords are parodies/interpretations of the original songs. You may use it for private study, scholarship, research or language learning purposes only
© 2014 AZChords.com Contact us | Privacy policy | DMCA | Add/correct tabs | Request tabs | Top 50 tabs