» » »

Frontwards Chords (ver.1)

Artists:  A B C D E F G H I J K L M N O P Q R S T U V W X Y Z # 

Frontwards Chords (ver.1)

Pavement
Rating:
5/5 (4 votes)

Hard to play? Try these video lessons and learn fast.
                
PAVEMENT "Frontwards"

Intro part       (X4)
e--------------------
B*-3------3---3-----*
G--2----2---2---0----
D--0-----------------
A*------------------*
E--------------------

                      (X3)
e----5-10---5----------||----|
B*-3----------3-3-3-3-*||-3--|
G----------------------||-2--|
D----------------------||-0--|
A---------------------*||----|
E----------------------||----|

VERSE

         D                       A
I am the only one, searching for you,

             G                          D
and if I get caught, then the search is through

        D                         
and the stories you hear, you know they never add up

A                                      G
I hear the natives fussin' at the data chart,


be quiet the weather's on the night news...


CHORUS

D            A              G             E
     Antique homes, plastic cones, stolen rims

                  D
are they alloy or chrome,

D                 A                G 
     Well Ive got style, miles and miles,

        E
so much style that its wasted,

D            E
     so much style that its wasted

D            E
     so much style that its waste--------

        G          E
--------ed

QUASI-SOLO-TYPE-THING
                                                           (X2)
e--------------------------------------------------------------
B-5~3~5~3~5~3--0-0--0-0------8~7~8~7~8~7~8-7-8-9\--------------
G-----------------------2------------------------\-------------


2nd VERSE
---------

She's the only one, who always inhales
Paris is stale
And it's war if we fail

And in the migrant hotels, they never sleep,
they never will
their souls are crumbling like a dirt clod hold,
your cigarette cuts to the inside

Antique homes, plastic cones, stolen rims,
are they alloy or chrome,
Well ive got style, miles and miles
So much style that its leavin
It's pattern's torn and we're weavin'
This battle's torn and we're weavin'
            
Hard to play? Try these video lessons and learn fast. | Correct




comments powered by Disqus
↑ Back to top | Tablatures and chords are parodies/interpretations of the original songs. You may use it for private study, scholarship, research or language learning purposes only