>
 >
Fillmore Jive

Fillmore Jive Guitar Tabs

Pavement - Fillmore Jive chords, tabs, tablatures, lyrics

Guitar lessons | Add/correct | Request | Top 50 tabs Artists:  A B C D E F G H I J K L M N O P Q R S T U V W X Y Z 0-9

Fillmore Jive Guitar Tabs – Pavement

CD, Sheet music, Poster

Do you like Fillmore Jive? Share with your friends now
TabsTabs v2
"Fillmore Jive"
Crooked Rain, Crooked Rain

e-3-3----5--5---3-3---5--5--3-3--5-/-6-5--3-/-4---3-3-/-6-6--5----|
b-1-1----3--3---1-1---3--3--1-1--3-/-4-3--1-/-2---1-1-/-4-4--3----|
g-0-0----0--0---0-0---0--0--0-0--0-/-0-0--0-/-0---0-0-/-0-0--0----|
d-2-2----4--4---2-2---4--4--2-2--4-/-5-4--2-/-3---2-2-/-5-5--4----|
a-3-3----5--5---3-3---5--5--3-3--5-/-6-5--3-/-4---3-3-/-6-6--5----|
e-----------------------------------------------------------------|

e-5-5-5-5--5-5----------------------------------------------------|
b-3-3-3-3--3-3---10-10-/-13--12-----3--------------3--------------|
g-0-0-0-0--0-0---10-10-/-13--12-----X--------------X--------------|
d-4-4-4-4--4-4---10-10-/-13--12-----4--------------4--------------|
a-5-5-5-5--5-5---8--8--/-11--10-----5--------------5--------------|
e-----------------------------------------------------------------|

loud part chords (not sure)
D(2320xx) G Bm(23442x) A(02220x)

1st main solo: 1:50
e-----------------------------------------------------------------|
b-----------------------------------------------------------------|
g-11b-11-12-11-9-11b--11-12-11-9-11bs-11-11-11--9s-9-9-9-9-8-6s---|
d-----------------------------------------------------------------|
a-----------------------------------------------------------------|
e-----------------------------------------------------------------|
                                                         fast strum
e----------------------------------------------------------------|
b------------------------------------10b-------------------------|
g-7-7--6--7-7-7-7-6---6-/-9-9b-9/-11-----11--9-9-/-11-12-12-12-/-|
d------7-------------7--------------------------------x--x--x--/-|
a------7----------------------------------------------10-10-10-/-|
e------5---------------------------------------------------------|

fast strum                fast strum
e-------------------------------------------------------------------|
b-------------15-15b------19191919-18-18--17-17--1515151515-15-/-19-|b
g-14-14-14-14--------14s--18181818-17-17--15-15--1414141414---------|
d-x--x--x--x--------------0-0-0-0--0--0---0--0---0-0-0-0-0----------|
a-12-12-12-12-------------------------------------------------------|
e-------------------------------------------------------------------|

e-------------------------------------------------------------------|
b-19-20b----17b-17-15----15--------------------------17-------------|
g--------19-----------18-------------12-12-----------16---16----19--|b
d---------------------------14-/-16b-------16-13-15b---------19-----|
a-------------------------------------------------------18----------|
e-------------------------------------------------------------------|

e------------------------------------------------------------------|
b--19b-19b-----17-19-15s-------------------------------------------|
g----------19b-----------------------------------------------------|
d------------------------------------------------------------------|
a------------------------------------------------------------------|
e------------------------------------------------------------------|

verse two
e----5---------5--5-------5----------------------------------------|
b-7----5-5-/-7------5-/-7---7-----------------12-----------------3-|
g-7-------------------------------------------13-------------------|
d-7----------------------------------------------------------------|
a-5----------------------------------------------------------------|
e------------------------------------------------------------------|

e---------------------------3----5-------5-5-------5-5-------5-----|
b--3------------------------3------5-5/7-----5-/-7-----5-/-7---7---|
g----2----------------------2--------------------------------------|
d-------0-0-0-0-0-0-0-0-0---0--------------------------------------|
a------------------------------------------------------------------|
e------------------------------------------------------------------|

e---------------5------5-------------------------------------------|
b---------5-/-7---5-/-7---7-5--5---5--5---5---5--5--5---5---5------|
g------------------------------------------------------------------|
d---------------------------------------0----0--0--0--0---0--------|
a------------------------------------------------------------------|
e------------------------------------------------------------------|

second loud part
2nd solo: 3:30

e-------------------------------------------------------------------|
b------------------------------------17-----------------------------|
g------------19b--------18-19-20--------17--------------15----15----|
d---11h12-14-----15-17-----------17b-------15b-------------17----17-|
a-------------------------------------------------------------------|
e-------------------------------------------------------------------|

e------------------------------------------------7-7-7--------------|
b--------------------------------------------5-/--------------------|
g--15----------------------------------------------------14-14-14---|
d-----17-----------------12-12-12-12-12-9-7-------------------------|
a--------17-/-19-19--17---------------------------------------------|
e-------------------------------------------------------------------|

e------------------------------------------------------------------|
b----------15-15--15-15-15-15-/-17b-17-17----17-17-17-/--19-19-19--|
g-14-/-17---------0---0--0----------------17-----------------------|
d------------------------------------------------------------------|
a------------------------------------------------------------------|
e------------------------------------------------------------------|

e---------------------------------------------------------------------|
b--19-19191919191919191920202020bbbbb---18181818181818bbbb---17171717-|
g-----17171717171717171717171717bbbbbb--17171717171717bbbb---16161616-|
d-----0-0-0-0-0-0-0-0-0-0-0-0-0---------0-0-0-0-0-0-0--------0-0-0-0--|
a---------------------------------------------------------------------|
e---------------------------------------------------------------------|

e------------------------------------------------------------------|
b--1717171717--15151515151515-1414141414141414--12121212121212-----|
g--1616161616--14141414141414-1212121212121212--11111111111111-----|
d--0-0-0-0-0---0-0-0-0-0-0-0--0-0-0-0-0-0-0-0---0-0-0-0-0-0-0------|
a------------------------------------------------------------------|
e------------------------------------------------------------------|

e------------------------------------------------------------------|
b-1010101010-888888--777777-7-7-7-7--5-5-5--2-2-2-2--2-3bs---------|
g-9-9-9-9-9--666666--666666-5-5-5-5--3-3-3-------------------------|
d-0-0-0-0-0--000000--000000-0-0-0-0--0-0-0-------------------------|
a------------------------------------------------------------------|
e------------------------------------------------------------------|

verse 3
one guitar plays this
e-----5--------5---------------9-9-10-10-9...----------------------|
b---5---7-5--5----7-5--....----------------------------------------|
g------------------------------------------------------------------|
d------------------------------------------------------------------|
a------------------------------------------------------------------|
e------------------------------------------------------------------|

the other plays this

e-------------------------------------------------------------------|
b-sustained-D-note....  -3-2-----3-------3-2---3--3-2-2-------------|
g----------------------------0-----0---0-----------------0-0-0--0---|
d-------------------------------------------------------------------|
a-------------------------------------------------------------------|
e-------------------------------------------------------------------|

e------------------------------------------------------------------|
b------------------------------------------------------------------|
g-0-0-0-0---4-2-2-2-2-0-0--0----44----4-4--44----666666-777777-----|
d--------------------------0--------5----5----5--666666-777777-----|
a------------------------------------------------------------------|
e------------------------------------------------------------------|

e------------------------------------------------------------------|
b------------------------------------------------------------------|
g--4-4-4-4-4-4-----------------------------------------------------|
d--5-5-5-5-5-5-----------------------------------------------------|
a--5-5-5-5-5-5-----------------------------------------------------|
e--3-3-3-3-3-3-......----------------------------------------------|


loud part 3
solo 3
     fast strum
e------------------------------------------------------------------|
b--19191919191919191919---171717171717171717----191919191919191919-|
g--18181818181818181818---171717171717171717----191919191919191919-|
d------------------------------------------------------------------|
a------------------------------------------------------------------|
e------------------------------------------------------------------|

e------------------------------------------------------------------|
b--17171717171717171717---------------------181818181818-----------|
g--17171717171717171717--15-15----1717-15---181818181818-----------|
d------------------------15-15-15-1717-15----------------15-16-17--|
a------------------------------------------------------------------|
e------------------------------------------------------------------|

e------------------------------------------------------------------|
b--------------1919191919191919-------161616161616----19b----------|
g--------------1919191919191919-------161616161616-17-----19-------|
d--19-19-17-16------------------19-17------------------------17-19-|21
a------------------------------------------------------------------|
e------------------------------------------------------------------|

e--------------------------------------------------------------------|
b--------------------------------------------------------------------|
g-/--------7--7777777777777777777--------------9-9-9-11-11-11--14-14-|
d----12-12----0000000000000000000------------------------------------|
a--------------------------------------------------------------------|
e--------------------------------------------------------------------|

e------------------------------------------------------------------|
b-----------------------1717171717171717171717171717171717---------|
g--14/15151515-17171717------------------------------------18-18---|
d------------------------------------------------------------------|
a------------------------------------------------------------------|
e------------------------------------------------------------------|

e-------------------------------------------------------------------|
b-171717171717171717171717171717---171717-------171717-----191919---|
g--------------------------------2--------18-18--------19b----------|
d-------------------------------------------------------------------|
a-------------------------------------------------------------------|
e-------------------------------------------------------------------|

e-------------------------------------------------15-14---14--14---|
b-17-15-/-171717-------171717-15-17-17-15---17-17-------0----0-----|
g----------------14-12---------------------------------------------|
d------------------------------------------------------------------|
a------------------------------------------------------------------|
e------------------------------------------------------------------|

e----14---14---14---14---14-14--13-12------------------------------|
b--0----0----0----0----0-------------------------------------------|
g--------------------------------------9-9-9-9--7-7----------------|
d--------------------------------------9-9-9-9--7-7----------------|
a------------------------------------------------------------------|
e------------------------------------------------------------------|

the bridge near the end (ie."every night it's straight and narrow.....")
is just G Bm A. guitar stops.

"Pull out the plugs and they snort up the drugs
When they pull out the plugs and they snort up the drugs
Their throats are filled with..."





Comments


Popular Pavement tabs & chords
Cut Your Hair 1 Bass Tabs
Elevate Me Later Bass Tabs
Grave Architecture Bass Tabs
Cut Your Hair Chords
Baptist Blacktick Tabs
Platform Blues Tabs
Spit On A Stranger Tabs
Zurich Is Stained Tabs
Box Elder Ukulele
You Are A Light Ukulele


Song lyrics



↑ Back to top | Tablatures and chords are parodies/interpretations of the original songs. You may use it for private study, scholarship, research or language learning purposes only
© 2014 AZChords.com Contact us | Privacy policy | DMCA | Add/correct tabs | Request tabs | Top 50 tabs