>
 >
Father To A Sister Of Thought

Father To A Sister Of Thought Guitar Tabs

Pavement - Father To A Sister Of Thought chords, tabs, tablatures, lyrics

Guitar lessons | Add/correct | Request | Top 50 tabs Artists:  A B C D E F G H I J K L M N O P Q R S T U V W X Y Z 0-9

Father To A Sister Of Thought Guitar Tabs – Pavement

CD, Sheet music, Poster

Do you like Father To A Sister Of Thought? Share with your friends now
ChordsTabsUkulele
PROPS GO TO: Michael Chipperfield


Transcribed with the use of Transcribe Version 6.0 

 =============================================
 * Father To A Sister Of Thought by Pavement *
 =============================================

 from the Album Wowie Zowie.

Chords used

     G       Dm        C        A
 E|--3-------1---------0--------0-----------------
 B|--3-------3---------1--------2-----------------
 G|--0-------2---------0--------2-----------------
 D|--0-------0---------2--------2-----------------
 A|--2-----------------3--------0-----------------
 E|--3-----------------0--------0-----------------

---------------------------
 intro:  G   Dm   C   (x2)
---------------------------

G
Rotten device, I'll say it twice

Dm                 C                   G
I'm too much, I'm too much comfort in here

Dm                 C           
Cost too much, too much to leave ya

G
Cause Everyone lies, there's no where to die

       Dm           C                    G
There's No place to shove my sharpened heels

Dm               C
I'm looking, looking for an

Em               A                    G  (let ring)
Italian Face in case you wanted to know

Dm          C                  A
I know, I'm leaving into the end

-------------------------------
 The Break:  G   Dm   C   (x2)
-------------------------------
     
Call and rebuff   talking so tough

                                  G
Good bye to the ugly steepl here

Dm              C 
Good times for ever after

G
Cause I'm just a man, you see who I am

Dm                      C  
I find with my hooks and open the books

G
Dirty blacke cause

Dm        C  
Angel of Corpus Christi

Em              A                         G
You're so misty tell me    what I want to hear

Dm            C            A     G
I know, I'm leaving in

Dm            C            A     
I know, I'm leaving into the end.

----------------------------------
 Second Break:  G  Dm  C  A  (X2)
----------------------------------

G     Dm           C           A               G
I know,   I should never ever go   to set you free


      Dm         C            A
I know,   I will never   ever go

--------
 outro:
--------

     E|---------------------------------------------------------------------
     B|---------------------------------------------------------------------
     G|--------------------------------------------------------------------- 
     D|--------5--------5--3--3--0--------------5------5--3--3--------------   (x2)
     A|-----------------------------3--5-5--3-3------3----------------------
     E|----3-3--------3-----------------------------------------5--3--~5~---


     E|---------------------------------------------------------------------
     B|---------------------------------------------------------------------
     G|--------------------------------------------------------------------- 
     D|--------5--------5--3-----0-----------5------5--3--------------------
     A|---------------------------------3-3-------3-------------------------
     E|----3-3--------3-----------------------------------------------------





Comments


Popular Pavement tabs & chords
Stereo Bass Tabs
Gold Soundz Chords
Black Out Tabs
Cut Your Hair Tabs
Easily Fooled Tabs
Frontwards 1 Tabs
Gold Soundz Tabs
Silent Kit Tabs
Gold Soundz Ukulele
Stop Breathing Ukulele


Song lyrics



↑ Back to top | Tablatures and chords are parodies/interpretations of the original songs. You may use it for private study, scholarship, research or language learning purposes only
© 2014 AZChords.com Contact us | Privacy policy | DMCA | Add/correct tabs | Request tabs | Top 50 tabs