>
 >
Date W Ikea

Date W Ikea Guitar Tabs

Pavement - Date W Ikea chords, tabs, tablatures, lyrics

Guitar lessons | Add/correct | Request | Top 50 tabs Artists:  A B C D E F G H I J K L M N O P Q R S T U V W X Y Z 0-9

Date W Ikea Guitar Tabs – Pavement

CD, Sheet music, Poster

Do you like Date W Ikea? Share with your friends now
Tabs
-------------------------------------------------------------------------------
                                                        Date w/ Ikea - Pavement
-------------------------------------------------------------------------------

Tuning: Drop D (D A D G B E)

Guitarists: Stephen Malkmus, Scott Kannberg

[Intro]

Guitar One (Clean, Palm-Muted)
e|---------------------------------|
B|---------------------------------|
G|-7-7-7-7-7-7-7-7-7-7-7-7-7-7-7-7-| x 8
D|-7-7-7-7-7-7-7-7-7-7-7-7-7-7-7-7-|
A|---------------------------------|
D|---------------------------------|

Guitar Two (Clean, w/ Flanger)
e|----------------------------------------------5--5--5--7-5-|
B|-------8--7--5-------8--7--5-------8--7--5-----------------|
G|-7-------------7-------------7--------------7--7--7--7-----|
D|---7-5-----------7-5-----------7-5-------------------------|
A|-----------------------------------------------------------|
D|-----------------------------------------------------------|

Guitar One (Fuzz + Distortion)
e|----------------------------------------------------------------|
B|-------------------------7--------------------------------------|
G|----------------------------9-7---------------------------------|
D|-5-5-5--0--0-0-0--7--7-7-0--0-0--5-5-5--0--0-0-0--7--7-7-7--7-7-|
A|-5-5-5--0--0-0-0--7--7-7-0--0-0--5-5-5--0--0-0-0--7--7-7-7--7-7-|
D|-5-5-5--0--0-0-0--7--7-7-0--0-0--5-5-5--0--0-0-0--7--7-7-7--7-7-|

Guitar Two (Clean, w/Flanger)
e|---------------5------------------5-5--5---7-5---|
B|---8--7-5---------7-5-----8--7-5---------------7-|
G|-7--7----7---7--7-----7-7--7----7----7---7-------|
D|-----------7-------------------------------------|
A|-------------------------------------------------|
D|-------------------------------------------------|

[Verse One]

Guitar One (Fuzz + Distortion)
e|----|
B|----|
G|----|
D|-0~-| x 4
A|-0~-|
D|-0~-|

Guitar Two (Clean)
e|----------------------------|
B|----------------------------|
G|----------------------------|
D|---7------------5-----------| x 4
A|--7-------5----5-------5----|
D|-7---0--7---5-----0--7---0--|

[Pre-Chorus]

Guitar One (Fuzz + Distortion)
e|--------------------------------------------|
B|--------------------------------------------|
G|--------------------------------------------|
D|-7-7--7--7--0--0--5---5-5--5--5--0--0--0--0-| x 2
A|-7-7--7--7--0--0--5---5-5--5--5--0--0--0--0-|
D|-7-7--7--7--0--0--5---5-5--5--5--0--0--0--0-|

Guitar Two (Clean w/ Flanger)
e|---------------5------------------5-5--5---7-5---|
B|---8--7-5---------7-5-----8--7-5---------------7-|
G|-7--7----7---7--7-----7-7--7----7----7---7-------|
D|-----------7-------------------------------------| x 1
A|-------------------------------------------------|
D|-------------------------------------------------|

[Chorus]

e|-----------------------------------------------------5---7--5---|
B|-------------------------7--------------------------------------|
G|----------------------------9-7---------------------------------|
D|-5-5-5--0--0-0-0--7--7-7-0--0-0--5-5-5--0--0-0-0--7--7-7-7--7-7-| x 2
A|-5-5-5--0--0-0-0--7--7-7-0--0-0--5-5-5--0--0-0-0--7--7-7-7--7-7-|
D|-5-5-5--0--0-0-0--7--7-7-0--0-0--5-5-5--0--0-0-0--7--7-7-7--7-7-|

Guitar Two (Clean w/ Flanger)
e|---------------5------------------5-5--5---7-5---|
B|---8--7-5---------7-5-----8--7-5---------------7-|
G|-7--7----7---7--7-----7-7--7----7----7---7-------|
D|-----------7-------------------------------------| x 2
A|-------------------------------------------------|
D|-------------------------------------------------|

[Verse Two] (Same as Verse One)
[Pre-Chorus Two] (Same)
[Chorus] (Same)

[Bridge / Solo]
Guitar One (Play Chorus)

Guitar Two (Clean, w/ Flanger) (Both bends are 1/2 notes)
e|---------------4b--3-2-3-4b-3-2-3-7-5--5--------5-------------------------|
B|-----5h7-7h8-8------------------------8--8-7-8-7---5----------------------|
G|-7h9------------------------------------------------7-7--7p6-4------------|
D|-------------------------------------------------------7-------7p5----7~--|
A|-------------------------------------------------------------------5h7----|
D|--------------------------------------------------------------------------|

e|--------------------------------------------------10-10-10------10--9-----|
B|---------7--7-7h8-8-8-8-7p5-5---5-5------------10--------10--10-------10--|
G|------------------------------------7-7-7--7--7---------------------------|
D|-7-7-7-7------------------------------------------------------------------|
A|--------------------------------------------------------------------------|
D|--------------------------------------------------------------------------|


e|----13--15--10--9---7---5\0---5-------5------/5---------------------------|
B|-10-----------------------------8-7-8---8-7-8--8-7-8-5-7--5--5--5-5-5-3-3-|
G|--------------------------------------------------------7-----------------|
D|--------------------------------------------------------------------------|
A|--------------------------------------------------------------------------|
D|--------------------------------------------------------------------------|

e|--------------------------------|
B|-5---5-5-5-5-5------------------|
G|---------------6--6-6--7-7-7----|
D|-----------------------------7~-|
A|--------------------------------|
D|--------------------------------|

[End]

************************************

| /   slide up
| \   slide down
| h   hammer-on
| p   pull-off
| ~   vibrato
| +   harmonic
| x   Mute note
| b   Bend
| pb  Pre-bend
| br  Bend release
| pbr Pre-bend release
| brb Bend release bend

************************************





Comments


Popular Pavement tabs & chords
Cut Your Hair 1 Bass Tabs
Elevate Me Later Bass Tabs
Purfume - V Bass Tabs
Shady Lane 2 Bass Tabs
Cream Of Gold Chords
Same Way Of Saying Chords
Hexx Intro Tabs
Conduit For Sale Ukulele
Easily Fooled Ukulele
Gold Sounds Ukulele


Song lyrics



↑ Back to top | Tablatures and chords are parodies/interpretations of the original songs. You may use it for private study, scholarship, research or language learning purposes only
© 2014 AZChords.com Contact us | Privacy policy | DMCA | Add/correct tabs | Request tabs | Top 50 tabs