» » »

Paul Wright, You're Beautiful Tabs (ver.1)

Artists:  A B C D E F G H I J K L M N O P Q R S T U V W X Y Z # 

You're Beautiful Tabs (ver.1)

Paul Wright Tabs
Rating:
0/5 (0 votes)
You're Beautiful lessons Tabs too difficult? Try these video lessons and learn fast
                Last time i checked theres no onewhoh really tabbed this out.
This is the song you're beautiful by Paul Wright.
Please leave feedback and rate
standard tuning.

  VERSE                                                X4
e|-------------------------------------------------------|
b|-------------------------------------------------------|
g|------0-----0-----0-----0-------0-------0-----0-----0--| 
d|----9-----9-----5-----5------12------12-----7-----7----|
a|--7-----7-----3-----3-----10------10------5-----5------|
e|-------------------------------------------------------|

                                 CHORUS
      Em                C                  G                 G            X3
e|----0--0--------0-----0--0--------0------3--3--------3-----3--3--------3--|
b|----0--0--------0-----1--1--------1------3--3--------3-----3--3--------3--|
g|----0--0--------0-----0--0--0--0--0------0--0--------0-----0--0--------0--|
d|----2-----2--2--2-----2-----2--2--2------0-----0--0--0-----0-----0--0--0--|
a|----2-----2--2--2--3--3-----3--3--3------2-----2--2--2-----2-----2--2--2--|
e|-0--0-----0--0--0---------------------3--3-----3--3--3--3--3-----3--3--3--|

                                 CHORUS
      Em                C                  G  X1
e|----0--0--------0-----0--0--------0------3~---------|
b|----0--0--------0-----1--1--------1------3~---------|
g|----0--0--------0-----0--0--0--0--0------0~---------|
d|----2-----2--2--2-----2-----2--2--2------0~---------|
a|----2-----2--2--2--3--3-----3--3--3------2~---------|
e|-0--0-----0--0--0------------------------3~---------| 

LYRICS:
the world is watching us from a distance
wanting more from their own existence
tell me how do we make a difference
for eternity does anybody want to know why we?re alive

oh oh oh oh
what?s the purpose of this life?
oh oh oh oh

before i die and i leave the world behind
i want to know why i?m alive

you?re created for the creator to live inside
there?s a hole in your soul and i know that you try
to fill it with every little thing but the very one who can heal it
and bring hope to a world that wants to know why they?re alive

spirit cry for this generation (generation)
we?re chasing the wind trying to embrace it
open our eyes to all the lies that we try to justify when deep down inside
all we want to find is someone that loves us all of the time and it?s you

yea it?s you oh oh
only you
yes it?s you oh oh oh
you?re beautiful came down from heaven just to save my save my soul
beautiful oh oh oh oh oh
you?re so beautiful
the people of this world are praising you and they are
beautiful oh oh oh oh
you?re so beautiful came down from heaven just save my save my soul
beautiful oh oh oh oh oh
now i?m beautiful


 
            

comments powered by Disqus
↑ Back to top | Paul Wright Tabs for You're Beautiful. Lyrics for acoustic guitar and electric guitar. Tablatures and chords are parodies/interpretations of the original songs. You may use it for private study, scholarship, research or language learning purposes only