» » »

Paul Wright, Life After Death Bass tabs (ver.1)

Artists:  A B C D E F G H I J K L M N O P Q R S T U V W X Y Z # 

Life After Death Bass tabs (ver.1)

Paul Wright Tabs
 Rating:
4/5 (4 votes)
Life After Death lessons Tabs too difficult? Try these video lessons and learn fast
1
                Life after Death by Paul Wright


Tuning: Standard

Verse 1 (Bass in at 0:18)
G|--------------------|
D|--------------------|
A|--3-----0-0--3------|
E|----3-3--------3-3--|

Pre-Chorus
G|-------------------------------------------------|
D|-------------------------------------------------|
A|--3-----0-0--3-----0-0--3-----0-0--3---0-0-0-00--|
E|----3-3--------3-3--------3-3--------3-----------|

Chorus
G|--------------------------------------------------------|
D|--------------------------------------------------------|
A|--3-----0--7-9--3---0--10-9-7-5-3---0--7-9-3---0-7-16\--|
E|----3-3-----------3---------------3----------3----------|

Verse 2
G|--------2--------2------------------------|
D|----------2--------2---------7-5----------|
A|--3----------3--------2-3--------7-5---3--|
E|----3-3--------3----------3----------3----|

(Pre-Chorus)
(Chorus)

Outro
G|--------------|                                G|--------------|
D|--------------|                                D|--------------|
A|--3---0--7-9--|                             A|--3---0--0-2--|
E|----3---------|(x4)-see Note 1    E|----3---------|(x7)-see Note 2

Note 1: On the 4th repeat, when you get to the open “A”, play it 8 times repeatedly then 
to the second part of the Outro.
Note 2: During the 7 repeats, it won’t always have the last 2 notes. Listen to the CD 
you will hear it.

Order
Verse 1
Pre-Chorus
Chorus
Verse 2
Pre-Chorus
Chorus
Outro
            
Submit corrections

comments powered by Disqus
↑ Back to top | Paul Wright Bass for Life After Death. Lyrics for acoustic guitar and electric guitar. 1 Tablatures and chords are parodies/interpretations of the original songs. You may use it for private study, scholarship, research or language learning purposes only