array
(
    
'heaven' => 'heaven'
    'paulwright' 
=> 'paulwright'
)
Heaven Bass tabs (ver. 1) by Paul Wright @ AZ CHORDS.COM
» » »

Heaven Bass tabs (ver.1)

Artists:  A B C D E F G H I J K L M N O P Q R S T U V W X Y Z # 

Heaven Bass tabs (ver.1)

Paul Wright
Rating:
0/5 (0 votes)

Hard to play? Try these video lessons and learn fast.
                

Tuning: Standard


Intro
Heaven, Heaven....
G|------------------------------------------|
D|----------------88810--------------87-----|
A|--66--88--1010--------66--88--1010----86--|
E|------------------------------------------|

Verse 1
I wanna know...
G|------------------------------------------|
D|----------------88810--------------87-----|
A|--66--88--1010--------66--88--1010----86--|
E|------------------------------------------|

G|-------------------------------------------|
D|----------------88810----------------------|
A|--66--88--1010--------66--88--10-10-10-10--|
E|-------------------------------------------|

Pre-Chorus
Cuz we don’t belong...
G|--------------------------------------|
D|--------------------------------------|
A|--6-6-66--10-10-1010-------8-8-88108--|
E|----------------------6-6-------------|

G|------------------------------------|
D|------------------------------------|
A|--6-6-66--10-10-1010------88888888--|
E|----------------------6-6-----------|

Chorus
Dancin, Singin, bringin our praises...
G|------------------------------------------|
D|----------------88810--------------87-----|
A|--66--88--1010--------66--88--1010----86--|
E|------------------------------------------|(x2)

Verse 2
I wanna know...
G|----------------------------------------|
D|----------------88---------------87-----|
A|--66--88--1010------66--88--1010----86--|
E|----------------------------------------|(x2)

(Pre-Chorus)
(Chorus)

Bridge
Cuz we...
G|----------------------------------|
D|---------8--8107--/---------------|
A|--6--10-------------6--10----8-/--|
E|---------------------------6------|

Order
Intro
Verse 1
Pre-Chorus
Chorus
Verse 2
Pre-Chorus
Chorus
Bridge
Chorus (x7)

Repeat Chorus 7 times after bridge

Bass comes in at 0:10
Bass Doesn’t play from 2:33 to 2:41
Bass drops out at 3:36
            
Hard to play? Try these video lessons and learn fast. | Correct




comments powered by Disqus
↑ Back to top | Tablatures and chords are parodies/interpretations of the original songs. You may use it for private study, scholarship, research or language learning purposes only