» » »

Paulson, Window Frames Tabs (ver.1)

Artists:  A B C D E F G H I J K L M N O P Q R S T U V W X Y Z # 

Window Frames Tabs (ver.1)

Paulson Tabs
Rating:
5/5 (2 votes)
Window Frames lessons Tabs too difficult? Try these video lessons and learn fast
                Paulson
All At Once

Intro/Chorus

Guitar 1
e--------5-----------------14-------|
B----------7-------------9----14----|
G--4-6-7------------9-11------------|
D-----------------------------------|
A-----------------------------------|
E-----------------------------------|

Guitar 2
e----------10-9----------------9-------|
B--9-10-12-------------9-10-12---10----|
G--------------------------------------|
D--------------------------------------|
A--------------------------------------|
E--------------------------------------|

Guitar 3
e---------------------------------------------------------------------|
B---------------------------------------------------------------------|
G--6-6-6-6-6-6-6-6-4-4-4-4-9-9-9-9-6-6-6-6-6-6-6-6-4-4-4-4-9-9-9-9----|
D---------------------------------------------------------------------|
A---------------------------------------------------------------------|
E---------------------------------------------------------------------|

Verse

Guitar 1
e------2-----2-----2-----2-----2--------5-----5----------------------|
B----------------3-----3-----3----------------------5-----5-----5----|
G----2-----2--------------------------6-----6-----4-----4-----4------|
D--4-----4-----4-----4-----4--------7-----7-----6-----6-----6--------|
A--------------------------------------------------------------------|
E--------------------------------------------------------------------|

e--------------------------------------------------------------------|
B---------------------------------------7-----7-----5-----5-----5----|
G------6-----6-----6-----6-----6-------------------------------------|
D----4-----4-----4-----4-----4--------7-----7-----6-----6-----6------|
A--5-----5-----5-----5-----5--------9-----9-----7-----7-----7--------|
E--------------------------------------------------------------------|

Guitar 2
e--------------------------------------------------------------------|
B--------------------------------------------------------------------|
G----------------------------------------7----6----------------------|
D----------7h9-7~-------------------7-------------7------------------|
A------------------------------------------------------7~------------|
E--------------------------------------------------------------------|

Chorus

Verse (No Guitar 1)

Interlude
                                                  2nd Time Only
e---------------9~-----------------------14~------------------16~----|
B-----7--9--10---------------10--12--14-----------10--12--14---------|
G--------------------------------------------------------------------|
D--------------------------------------------------------------------|
A--------------------------------------------------------------------|
E--------------------------------------------------------------------|

Chorus

The End
            
Submit corrections

comments powered by Disqus
↑ Back to top | Paulson Tabs for Window Frames. Lyrics for acoustic guitar and electric guitar. Tablatures and chords are parodies/interpretations of the original songs. You may use it for private study, scholarship, research or language learning purposes only