» » »

Voids Tabs (ver.1)

Artists:  A B C D E F G H I J K L M N O P Q R S T U V W X Y Z # 

Voids Tabs (ver.1)

Paulson
Rating:
0/5 (0 votes)

Hard to play? Try these video lessons and learn fast.
                Paulson
All At Once

Pretty simple; the synth and bass make up most of this song, so Jesse's just comping

Verse

e----------------------------------------|
B---------------------------------7------|
G----8----------6------8------------8----|
D------8------6----------8------6--------|
A--6--------7--------6--------7----------|
E----------------------------------------|

Chorus

e--------4-------4-------4-------4--|
B-----------------------------------|
G----3h4-----3h4-----3h4-----3h4----|
D--6-------6-------6-------6--------|
A-----------------------------------|
E-----------------------------------|

Verse

Chorus

Interlude

Played with octaver
e---------------------------------------------------------------------|
B--------------------------------------------12-12-12-11-11-11-11-11--|
G-----------13-13-13-11-11-11-11----11-11-11--------------------------|
D--13-13-13-----------------------------------------------------------|
A---------------------------------------------------------------------|
E---------------------------------------------------------------------|

Last Chorus layer the interlude guitar over the existing guitar

End with:

G----4p3----|
D--6--------|

The End
            
Hard to play? Try these video lessons and learn fast. | Correct




comments powered by Disqus
↑ Back to top | Tablatures and chords are parodies/interpretations of the original songs. You may use it for private study, scholarship, research or language learning purposes only