» » »

I Knew You When Tabs (ver.1)

Artists:  A B C D E F G H I J K L M N O P Q R S T U V W X Y Z # 

I Knew You When Tabs (ver.1)

Paulson
Rating:
0/5 (0 votes)

Hard to play? Try these video lessons and learn fast.
                Paulson
All At Once

Verse

e----------------------------------------------------------------|
B--8-8--7-7--10-10--8-8--7-7-8----9-9--7-7--10-10--9-9--7-7-9----|
G--0-0--0-0--0--0---0-0--0-0-0----0-0--0-0--0--0---0-0--0-0-0----|
D----------------------------------------------------------------|
A--7-7--5-5--9--9---7-7--5-5-7----7-7--5-5--9--9---7-7--5-5-7----|
E----------------------------------------------------------------|

e--------------------|
B--------------------|
G--4-4-4-4-4-4-4-4---|
D--2-2-2-2-2-2-2-2---|
A--3-3-3-3-3-3-3-3---|
E--------------------|

Chorus

e-------------------------------------------------------------------------|
B-------------------------------------------------------------------------|
G--------0--2---------0--2---------0--------0--2--2-2-2-2-0-0-0-0---------|
D--2--4---------2--4---------2--4-----2--4------------------------4-4-4-4-|
A-------------------------------------------------------------------------|
E-------------------------------------------------------------------------|

e------------------------------------------------|
B---------8--10----------8--10----------8--------|
G--9--11----------9--11----------9--11-----------|

e------------------------------------------------|
B---------8--10--10-10-10-10-8-8-8-8-------------|
G--9--11-----------------------------11-11-11-11-|


Then use the chord voicings from the verse for the intro to the second verse but slide 
them.

Verse

2nd Chorus

e-------------------------------------------------------------------------|
B-------------------------------------------------------------------------|
G--------0--2---------0--2---------0--------0--2--2-2-2-2-0-0-0-0---------|
D--2--4---------2--4---------2--4-----2--4------------------------4-4-4-4-|
A-------------------------------------------------------------------------|
E-------------------------------------------------------------------------|

e------------------------------------------------|
B---------8--10----------8--10----------8--------|
G--9--11----------9--11----------9--11-----------|

e-----------------------------------------------------|
B---------8--10--10-10-10-10-8-8-8-8------------------|
G--9--11-----------------------------7-7-7-7-8-8-8-8--|
D------------------------------------4-4-4-4-9-9-9-9--|

Breakdown

e----------15--------------15--------------15--------------14------|
B------12------12------12------12------12------12------12------12--|
G--------------------------------------------------11--------------|
D--14--------------14--------------12------------------------------|
A------------------------------------------------------------------|
E------------------------------------------------------------------|

The End
            
Hard to play? Try these video lessons and learn fast. | Correct




comments powered by Disqus
↑ Back to top | Tablatures and chords are parodies/interpretations of the original songs. You may use it for private study, scholarship, research or language learning purposes only