» » »

Under African Skies Bass tabs (ver.1)

Artists:  A B C D E F G H I J K L M N O P Q R S T U V W X Y Z # 

Under African Skies Bass tabs (ver.1)

Paul Simon
Rating:
0/5 (0 votes)

Hard to play? Try these video lessons and learn fast.
                Refrain:
---------------------------
---------------------------
-6-66-6-------------------- REPEAT
-------4-44-46-66-66-6-----

Verses: 
 t  t tt  tt t t tt p   tt tt tt t
-------------------------------------
-------------------------------------
-6--6------------66-6/---------------
------44--66-6-6--------44-66-66-6---

Bridge:
-----------------------
--------------------8--
--6-6------6-6---------
------44-4-----66-6----

Winner
            
Hard to play? Try these video lessons and learn fast. | Correct




comments powered by Disqus
↑ Back to top | Tablatures and chords are parodies/interpretations of the original songs. You may use it for private study, scholarship, research or language learning purposes only