>
 >
Scarborough Fair

Scarborough Fair Guitar Tabs

Paul Simon - Scarborough Fair chords, tabs, tablatures, lyrics

Guitar lessons | Add/correct | Request | Top 50 tabs Artists:  A B C D E F G H I J K L M N O P Q R S T U V W X Y Z 0-9

Scarborough Fair Guitar Tabs – Paul Simon

CD, Sheet music, Poster

Do you like Scarborough Fair? Share with your friends now
Tabs
  Scarborough Fair                                 


                                                                      Paul Simon
Guitar (Capo 7)



     (Capo 7)                                                             
     --2-1-                     -32-1-                                    
     E        E  E  E  E  E     E      E  E  E  E  E     E  E  Q    Q     
E||-----------0--------------|---------0--------------|------------------|
B||--------------------3-----|------------------3-----|-----0------------|
G||--------------0--------0--|------------0--------0--|--------0---------|
D||-----------------4--------|---------------4--------|------------------|
A||--0-----------------------|--5---------------------|--3----------2----|
E||--------------------------|------------------------|------------------|


    --2-1-                                          --231-                 
    E      E  E  E  E  E     E  E  E  E  E  E       E      E  E  E  E  E   
|----------0--------------|-----0---------------||------------------------|
|-------------------3-----|--------------0------||---------------1-----1--|
|*------------0--------0--|--------2--------2--*||--2---------2-----2-----|
|*---------------4--------|-----------2--------*||---------2--------2-----|
|---0---------------------|--0------------------||--0---------------------|
|-------------------------|---------------------||------------------------|


  -32-1-                     3-----       --2-1-        
  E      S  S E  E  E  E     E      E  E  E      E  E   
--0-----------------0-----|----------------------------|
-----------------1--------|--0------------1------0-----|
--------------0--------0--|------------0------------0--|
---------0h-2-------------|---------0-----2------0-----|
--3-----------------3-----|----------------------------|
--------------------------|--3-------------------------|


  --2-1-                                                           
  E      E  E  E  E  E     E  E  E  E  E  E     E  E  E  E  E  E   
---------0--------------|-----0--------------|--------0-----3-----|
------------------3-----|--------------0-----|--------------------|
------------0--------0--|--------2--------2--|-----------0-----0--|
---------------4--------|-----------2--------|-----2--------------|
--0---------------------|--0-----------------|--0-----------3-----|
------------------------|--------------------|--------------------|


                       C     D                                 
  E  E  E  E  E  E     E  E  E  E  E  E     E  E  E  E  E  E   
--5-----------3-----|--0-----2-----------|--0-----------0-----|
--------5-----------|--------------3-----|-----------0--------|
-----5-----0-----0--|-----0-----2-----2--|--------2--------2--|
--------------------|--------0-----------|-----2--------------|
--0-----------2-----|--3-----------------|--------------------|
--------------------|--------------------|--0-----------------|


  E                                        C                    
  E  E  E  E  Q       E  E  E  E  E  E     E  S  S E  E  E  E   
--------------0----|--5-----------5-----|--3-------------0-----|
-----------0-------|--------5-----------|-------------1--------|
--1-----1----------|-----5-----5-----0--|----------0--------0--|
-----2-------------|--------------------|-----0h-2-------------|
-------------------|--0-----------------|--3-------------------|
--0----------------|--------------------|----------------------|


  C            Am                                                    
  S S E  E  E  E  E     E  S  S E  E  E  E     S  S S S E  E  E  E   
--0------------------|----------------------|--------------3--3-----|
------1--3-----1-----|--0----------1--0-----|-----------1-----0-----|
----0-------0-----0--|----------0--------0--|--0h-2---2----------0--|
---------------------|-----0h-2-------0-----|-------0---------------|
--3------2-----0-----|----------------------|-----------------------|
---------------------|--3-------------------|--3--------------3-----|


  Am                   D                                            
                          |--3--|                                   
  E  E  E  E  E  E     E  S  S  S E  E  E  E     E  E  E  E  E  E   
--------------0-----|-----2h-3p-2-------------|--------------------|
-----------1--------|--3----------3-----1-----|--0--------1-----0--|
--2-----2--------0--|----------------2-----0--|--------2-----0-----|
-----2--------------|--0----------------------|-----0--------------|
--0-----------3-----|-------------------0-----|--------------------|
--------------------|-------------------------|--3-----------3-----|


    E  E  E  E  E  E     E  E  E  E  E  E       E  E  E  E  S  S E   
|------0--------------|-----0---------------||----------------------|
|---------------3-----|--------------0------||-----------1-------1--|
|*--------0--------0--|--------2--------2--*||--2-----2-----2-------|
|*-----------4--------|-----------2--------*||-----2--------0h-2----|
|---0-----------------|--0------------------||--0-------------------|
|---------------------|---------------------||----------------------|


  E  S  S E  E  E  E     E  E  E  E  E  E     E  E  E  E  E  E   
--0-------------0-----|--------------------|-----0--------------|
-------------1--------|--0--------1--0-----|--------------3-----|
----------0--------0--|--------0--------0--|--------0--------0--|
-----0h-2-------------|-----0-----2--0-----|-----------4--------|
--3-------------3-----|--------------------|--0-----------------|
----------------------|--3-----------------|--------------------|


  E  E  E  E  E  E     E  E  E  E  E  E     E  E  E  E  E  E   
-----0--------------|--------0-----3-----|--5-----------3-----|
--------------0-----|--------------------|--------5-----------|
--------2--------2--|-----------0-----0--|-----5-----0-----0--|
-----------2--------|-----2--------------|--------------------|
--0-----------------|--0-----------3-----|--0-----------2-----|
--------------------|--------------------|--------------------|


  E  E  E  E  E  E     E  E  E  E  E  E     E  E  E  E  E  E   
--0-----2-----------|--0-----------0-----|--------------0-----|
--------------3-----|-----------0--------|-----0-----0-----0--|
-----0-----2-----2--|--------2--------2--|--1-----2-----------|
--------0-----------|-----2--------------|--------------------|
--3-----------------|--------------------|--------------------|
--------------------|--0-----------0-----|--0-----2-----4-----|


  E  E  E  E  E  E     E  S  S E  E  E  E     S S E  E  E  E  E   
--5-----------5-----|--3-------------0-----|--0------------------|
--------5-----------|-------------1--------|------1--3-----1-----|
-----5-----5-----0--|----------0--------0--|----0-------0-----0--|
--------------------|-----0h-2-------------|---------------------|
--0-----------2-----|--3-------------3-----|--3------2-----0-----|
--------------------|----------------------|---------------------|


  E  S  S E  E  E  E     S  S S S E  E  E  E     E  S  S E  E  E  E   
-------------3--3-----|--------------3--3-----|----------------0-----|
--0----------1--0-----|-----------1-----0-----|-------------1--------|
----------0--------0--|--0h-2---2----------0--|--2-------2--------0--|
-----0h-2-------0-----|-------0---------------|-----0h-2-------------|
----------------------|-----------------------|--0-------------3-----|
--3-------------------|--3--------------3-----|----------------------|


     |--3--|                                                          
  E  S  S  S E  E  E  E     E  E  E  E  E  E       E  E  E  E  E  E   
-----2h-3p-2-------------|--------------------||------0--------------|
--3----------3-----1-----|--0--------1-----0--||---------------3-----|
----------------2-----0--|--------2-----0-----||*--------0--------0--|
--0----------------------|-----0--------------||*-----------4--------|
-------------------0-----|--------------------||---0-----------------|
-------------------------|--3-----------3-----||---------------------|


  E  E  E  E  E  E       E  E  E  E  E  E     E  E  E  E  E  E   
-----0---------------||-----0--------------|-----0--------------|
--------------0------||--------------3-----|--------------3-----|
--------2--------2--*||--------0--------0--|--------0--------0--|
-----------2--------*||-----------4--------|-----------4--------|
--0------------------||--0-----------------|--5-----------------|
---------------------||--------------------|--------------------|


  E  E  Q    Q       H.             
------------------|---------------||
-----0------------|---------------||
--------0---------|---------------||
------------------|---------------||
--3----------2----|--0------------||
------------------|---------------||





Comments


Popular Paul Simon tabs & chords
Born In Puerto Rico Chords
Late In The Evening Chords
Late In The Evening 2 Chords
Me And Julio 1 Chords
Me And Julio Down By The Schoolyard Chords
Silent Eyes Chords
A Simple Desultory Philippic Ukulele
Me And Julio Down By The Schoolyard Ukulele
Slip Slidin Away Ukulele
Song About The Moon Ukulele


Song lyrics



↑ Back to top | Tablatures and chords are parodies/interpretations of the original songs. You may use it for private study, scholarship, research or language learning purposes only
© 2014 AZChords.com Contact us | Privacy policy | DMCA | Add/correct tabs | Request tabs | Top 50 tabs