>
 >
Loves Me Like A Rock

Loves Me Like A Rock Bass Tabs

Paul Simon - Loves Me Like A Rock chords, tabs, tablatures, lyrics

Guitar lessons | Add/correct | Request | Top 50 tabs Artists:  A B C D E F G H I J K L M N O P Q R S T U V W X Y Z 0-9

Loves Me Like A Rock Bass Tabs – Paul Simon

CD, Sheet music, Poster

Do you like Loves Me Like A Rock? Share with your friends now
Bass TabsBass Tabs v2ChordsUkulele
[INTRO]
                                         When I was a little
Hmmmm     G     C  G     C  G     C  G
|--------|--------|0-------|0-------|0-------|
|--------|--------|--------|--------|--------|
|--------|--------|--------|--------|--------|
|--------|--------|--------|--------|--------|

[VERSE 1]
 Boy           And.Name              Who do.. Who do...Fooling?     I'm a
 G     C  G        G     c  G        C7       C7       G     C  G
|0-------|0-------|0-------|0-------|--------|--------|0-------|0-------|
|----0-3-|----0---|----0-3-|----0---|--------|----0-3-|----0-3-|----0---|
|--------|--------|--------|--------|3-----2-|3-------|--------|--------|
|--------|--------|--------|--------|----3---|--------|--------|--------|

 Boy               I'm a...     My...She...   She loves me...
 G     C  G        C7       C7       G        D       
|0-------|0-------|--------|--------|0-0-0-0-|--------|
|----0-3-|----0---|--------|----0-3-|--------|0-0-0-0-|
|--------|--------|3-------|3-------|--------|--------|
|--------|--------|----3-2-|--------|--------|--------|

[CHORUS 1]
 She gets.hugs me..Loves... rock...      She..Rock.she     
 G        Em       C        G        C        F   C    
|0-0-0-0-|--------|--------|--------|--------|--------|
|--------|2-2-2-0-|--------|----0---|--------|3-------|
|--------|--------|3-3-2-0-|--2---2-|3-------|----3---|
|--------|--------|--------|3-------|----3---|--------|

 Loves me Loves me Loves me     When I was grown to be a
 G        G        G        G        
|0-------|--------|0-------|--------|
|--0---0-|----0---|--0---0-|--------|
|----2---|--2---2-|----2---|--------|
|--------|3-------|--------|3-------|

[VERSE 2]
 Man               Name...           Who do...Who do...Fooling?
 G     C  G        G     C  G        C7       C7       G     C  G
|0-------|0-------|--------|--------|--------|----0-2-|0-------|0-------|
|--------|--2-0---|----0---|--------|--------|--2-----|----0---|--2-0---|
|--------|------2-|--------|----0-2-|3-------|3-------|--------|------2-|
|--------|--------|3-------|3--3----|----3--3|--------|--------|--------|

 Man               Purity...    My...She...   She loves me...
 G     C  G        C7       C7       G        D
|--------|0-------|--------|----0-2-|0-0-0-0-|--------|
|--------|--2-0---|--------|--2-----|--------|0-0-0-0-|
|--------|------2-|3-------|3-------|--------|--------|
|3-------|--------|----3---|--------|--------|--------|

[CHORUS 2]
 She gets.hugs me..Loves... rock...      She..Rock.she     
 G        Em       C        G        C        F   C    
|0-0-0-0-|--------|--------|--------|--------|--------|
|--------|2-2-2-0-|--------|----0---|--------|3-------|
|--------|--------|3-3-2-0-|--2---2-|3-------|----3---|
|--------|--------|--------|3-------|----3---|--------|

 Loves me Loves me Loves me     And if I was the Presi-
 G        G        G        G        
|0-------|0-------|0-------|0-------|
|----0---|----0-3-|----0---|----0-3-|
|--------|--------|--------|--------|
|--------|--------|--------|--------|

[VERSE 3]
-dent              Name...           Who do...Who do...Fooling?
 G     C  G        G     C  G        C7       C7       G     C  G
|0-------|0-------|--------|--------|--------|----0-2-|0-------|0-------|
|----0---|--2-0---|----0---|--------|--------|--2-----|----0---|--2-0---|
|--------|------2-|--------|----0-2-|3-------|3-------|--------|------2-|
|--------|--------|3-------|3--3----|----3--3|--------|--------|--------|

 Seal...           Podium...         She...   She loves me...
 G     C  G        C7       C7       G        D
|--------|--------|--------|----0-2-|0-0-0-0-|--------|
|----0---|--------|--------|--2-----|--------|0-0-0-0-|
|--------|----0-2-|3-------|3-------|--------|--------|
|3-------|3--3----|----3---|--------|--------|--------|

[CHORUS 3]
 She gets.hugs me..Loves... rock...      She..Rock.she     
 G        Em       C        G        C        F   C  
|0-0-0-0-|--------|--------|--------|--------|--------|
|--------|2-2-2-0-|--------|----0---|--------|3-------|
|--------|--------|3-3-2-0-|--2---2-|3-------|----3---|
|--------|--------|--------|3-------|----3---|--------|

 Loves me Loves me Loves me
 G        G        G        G        
|0-------|--------|0-------|--------|
|--0---0-|----0---|--0---0-|----0---|
|----2---|--2---2-|----2---|--2---2-|
|--------|3-------|--------|3-------|

Play til fade repeating Chorus Chords and Bassline, playing as you see fit.





Comments


Popular Paul Simon tabs & chords
El Condor Pasa Chords
Father And Daughter 1 Chords
Kodachrome 5 Chords
Me And Julio Chords
Still Crazy After All These Years 1 Chords
The Coast Chords
Crazy Love Vol 2 Tabs
Scarborough Fair Tabs
Sparrow Tabs
Born At The Right Time Ukulele


Song lyrics



↑ Back to top | Tablatures and chords are parodies/interpretations of the original songs. You may use it for private study, scholarship, research or language learning purposes only
© 2014 AZChords.com Contact us | Privacy policy | DMCA | Add/correct tabs | Request tabs | Top 50 tabs