» » »

Paul Simon, Graceland Bass tabs (ver.1)

Artists:  A B C D E F G H I J K L M N O P Q R S T U V W X Y Z # 

Graceland Bass tabs (ver.1)

Paul Simon Tabs
 Rating:
3.4/5 (5 votes)
Graceland lessons Tabs too difficult? Try these video lessons and learn fast
1
                Bakithi Khumalo on Bass


/slide up
\slide down
~held note
h (0h9)

INTRO
|------------------------------------------------------|
|------------------------------------------------------|
|--2/7~------------------------------------------------|
|-----------------------------------------------0------|

VERSE
E
|------------------------------------------------------------------|
|------------------------------------------------------------------|
|---------7----------------7---------------7-----------------7-----|
|--0-0-------0------0-0-------0-----0-0-------0------0-0--------0--|

	A
|------------------------------------------------------------------|
|---------5----------------5---------------5-----------------5-----|
|------------------------------------------------------------------|
|--3-3-------3------3-3-------3-----3-3-------3------3-3--------3--|

	C#
|--------------------------------------------------------------------|
|---------11----------------11---------------11---------------11-----|
|--------------------------------------------------------------------|
|--9-9--------9------9-9--------9-----9-9--------9------9-9-------9--|


	B
|--------------------------------------------------|
|----------9---------------9-----------------9-----|
|--------------------------------------------------|
|--7-7--------7------7-7------7-----7-7---------7--|

INTERLUDE 1 (replaces the third part of the B verse)  

|--------9----------------|
|--/11-----11-9-----------|
|-------------------11-9--|
|-------------------------|

INTERLUDE 2 (replaces Interlude 1 [only played the 2nd time REALLY FAST])

|----------------------------|
|--/9------------------------|
|---------12\11\0-0h9/11-----|
|-------------------------0--|

CHORUS

|-----------------------------------------------------------|
|---------------------6--4---------------7-7\6\0h5/6--------|
|-----7-----------7---------7----------------------------7--|
|--0----0-----------------------5---------------------------|

|------------------------------------------------6-6\4----------|
|------------------------6--9-----4---7---------------0h5/------|
|------7------------7----------5-----------------------------7--|
|--0------0-----------------------------------------------------|

Outtro

E
|------------------------------------------------|
|------------------------------------------------|
|---------7----------------7---------------7-----|
|--0-0-------0------0-0-------0-----0-0-------0--| 2x

	A
|------------------------------------------------------------------|
|---------5----------------5---------------5-----------------5-----|
|------------------------------------------------------------------|
|--3-3-------3------3-3-------3-----3-3-------3------3-3--------3--|

	C#
|---------------------------------------------------------------------|
|---------11----------------11---------------11----------------11-----|
|---------------------------------------------------------------------|
|--9-9--------9------9-9--------9-----9-9--------9------9-9--------9--|


	B
|------------------------------------------------|
|---------9----------------9---------------9-----|
|------------------------------------------------|
|--7-7-------7------7-7-------7-----7-7-------7--|

|--------9----------------|
|--/11-----11-9-----------|
|-------------------11-9--|
|-------------------------|


Fade on CHORUS

SONG FORM

Intro 2x
Verse 1x with Interlude 1
Verse 1x with Interlude 2
Chorus 4x
Verse 1x with Interlude 1
Verse 1x with Interlude 2
Chorus 4x
Verse 1x with Interlude 1
Verse 1x with Interlude 2
Chorus4x
Outtro

Aaaaaaaaaaaaaaaaaand there it is.
            
Submit corrections

comments powered by Disqus
↑ Back to top | Paul Simon Bass for Graceland. Lyrics for acoustic guitar and electric guitar. 1 Tablatures and chords are parodies/interpretations of the original songs. You may use it for private study, scholarship, research or language learning purposes only