» » »

Paul Simon, Father And Daughter Tabs (ver.1)

Artists:  A B C D E F G H I J K L M N O P Q R S T U V W X Y Z # 

Father And Daughter Tabs (ver.1)

Paul Simon Tabs
 Rating:
4/5 (4 votes)
Father And Daughter lessons Tabs too difficult? Try these video lessons and learn fast
1
                (Intro)
hi, this is my first ever tab, so comments are welcome.
i couldn't find a tab for this song apart from on a paul simon web site, but that was wrong.

so here it is....

Capo 4 fret

E-5-3p0------------------------------|
B-------3-5-3p0-----------------3-5--|
G---------------2-4-2p0-----2-4------|
D-----------------------2-5----------|
A------------------------------------|
E------------------------------------|

E-5-3p0---------------------------------|
B-------3-5-3p0-----------------3-5-----|
G---------------2-4-2p0-----2-4-------0-|
D-----------------------2h5---------0---|
A---------------------------------------|
E---------------------------------------|

there you go hope its ok, im not sure about the rest but i realy love this riff.

gazmondo!
            
Submit corrections

comments powered by Disqus
↑ Back to top | Paul Simon Tabs for Father And Daughter. Lyrics for acoustic guitar and electric guitar. 1 Tablatures and chords are parodies/interpretations of the original songs. You may use it for private study, scholarship, research or language learning purposes only