>
 >
Duncan

Duncan Guitar Tabs

Paul Simon - Duncan chords, tabs, tablatures, lyrics

Guitar lessons | Add/correct | Request | Top 50 tabs Artists:  A B C D E F G H I J K L M N O P Q R S T U V W X Y Z 0-9

Duncan Guitar Tabs – Paul Simon

CD, Sheet music, Poster

Do you like Duncan? Share with your friends now
ChordsTabsUkulele
Paul Simon


No capo 

     Em 
e:|-----------------|-----------------|-----------------|-----------------| 
B:|-----------0-----|-----------0-----|-----------0-----|-----------0-----| 
G:|-----------------|-----------------|-----------------|-----------------| 
D:|-----2-------2---|-----2-------2---|-----2-------2---|-----2-------2---| 
A:|-----------------|-----------------|-----------------|-----------------| 
E:|--0-----0--------|--0-----0--------|--0-----0--------|--0-----0--------| 



  $  Em                                  D 
e:|-----------------|-----------------|-----------0-----|--0h2-------2----| 
B:|-----------0-----|-----------0-----|-------3---------|--------3--------| 
G:|-------0---------|--0----0---------|-----2-------2---|------2-------2--| 
D:|-----2-------2---|-----2-------2---|--0------0-------|--0-------0------| 
A:|-----------------|-----------------|-----------------|-----------------| 
E:|--0------0-------|--0------0-------|-----------------|-----------------| 

         Couple in the next room        bound to win  a  prize    They've . 


     G                 A                 D 
e:|-----------------|-----------------|-----------0-----|--0h2-------2----| 
B:|----0-------0----|----2-------2----|-------3---------|--------3--------| 
G:|--------0--------|--------2--------|-----2-------2---|------2-------2--| 
D:|------0-------0--|------2-------2--|--0------0-------|--0-------0------| 
A:|-----------------|--0-------0------|-----------------|-----------------| 
E:|--3-------2------|-----------------|-----------------|-----------------| 

    going  at it   all night         long                              I'm 


     C                 G                 C                 G 
e:|-----------------|-----------------|-----------------|-----------------| 
B:|----1-------1----|----0-------0----|----1-------1----|----0-------0----| 
G:|--------0--------|--------0--------|--------0--------|--------0--------| 
D:|------2-------2--|------0-------0--|------2-------2--|------0-------0--| 
A:|--3-------3------|-----------------|--3-------3------|-----------------| 
E:|-----------------|--3-------3------|-----------------|--3-------3------| 

    tryin' to get . sleep    but these motel walls are cheap       Lincoln 


     C                 G              *  D 
e:|-----------------|-----------------|-----------0-----|--0h2-------0----| 
B:|----1-------1----|----0-------0----|--3----3---------|--------3--------| 
G:|--------0--------|--------0--------|-----2-------2---|------2-------2--| 
D:|------2-------2--|------0-------0--|--0------0-------|--0-------0------| 
A:|--3-------3------|-----------------|-----------------|-----------------| 
E:|-----------------|--3-------3------|-----------------|-----------------| 

    Duncan is my name   and here's my song                       Here's my 


     Em 
e:|-----------------|-----------------|-----------------| 
B:|-----------0-----|---0-------0-----|-----------------| 
G:|-------0---------|-------0-------0-|--------%--------| 
D:|-----2-------2---|-----2-------2---|-----------------| 
A:|-----------------|-----------------|-----------------| 
E:|--0------0-------|-0-------0-------|-----------------| 

   song 

For the second verse, return to $ and repeat.  At * jump to: 

*: 

    Dadd4                               Em 
e:|-----------------|-----------------|-----------------|-----------------| 
B:|---3-------3-----|-----------------|---0-------0-----|-----------------| 
G:|-------0-------0-|--------%--------|-------0-------0-|--------%--------| 
D:|-----4-------4---|-----------------|-----2-------2---|-----------------| 
A:|-0-------0-------|-----------------|-----------------|-----------------| 
E:|-----------------|-----------------|-0-------0-------|-----------------| 

  .. England                  sweet New England                   Mmmm ... 


    C                                   G                                 % 
e:|-----------------|-----------------|-----------------|-----------------| 
B:|---1-------1-----|-----------------|---0-------0-----|-----------------| 
G:|-------0-------0-|--------%--------|-------0-------0-|--------%--------| 
D:|-----2-------2---|-----------------|-----0-------0---|-----------------| 
A:|-3---------------|-----------------|-----------------|-----------------| 
E:|---------3-------|-----------------|-3-------3-------|-----------------| 




    Dadd4                               Em 
e:|-----------------|-----------------|-----------------|-----------------| 
B:|---3-------3-----|-----------------|---0-------0-----|-----0-------0---| 
G:|-------0-------0-|--------%--------|-------0-------0-|---------0-------| 
D:|-----4-------4---|-----------------|-----2-------2---|-------2-------2-| 
A:|-0-------0-------|-----------------|-----------------|-----------------| 
E:|-----------------|-----------------|-0-------0-------|--0--------0-----| 




    Em 
e:|-----------------|-----------------------| 
B:|---0-------0-----|-----0-------0---------| 
G:|-------0-------0-|---------0-------------| 
D:|-----2-------2---|-------2-------2-------| 
A:|-----------------|-----------------------| 
E:|-0-------0-------|--0--------0-------5s0-| 


For the third verse ("Holes in my confidence ..."), return to $ and repeat,  
taking the first * jump and staying on Em to begin the fourth verse. 

For the fourth verse ("A young girl ..."), return to $ and repeat.  At * 
jump to: 

*(2): 

    Dadd4                               Em 
e:|-----------------|-----------------|-----------------|-----------------| 
B:|---3-------3-----|-----------------|---0-------0-----|-----------------| 
G:|-------0-------0-|--------%--------|-------0-------0-|--------%--------| 
D:|-----4-------4---|-----------------|-----2-------2---|-----------------| 
A:|-0-------0-------|-----------------|-----------------|-----------------| 
E:|-----------------|-----------------|-0-------0-------|-----------------| 

 ... sur -  vi  -   -   -   -   -    -  val ...                    Mmmm ... 


    C                                   G 
e:|-----------------|-----------------|-----------------|-----------------| 
B:|---1-------1-----|-----------------|---0-------0-----|-----------------| 
G:|-------0-------0-|--------%--------|-------0-------0-|--------%--------| 
D:|-----2-------2---|-----------------|-----0-------0---|-----------------| 
A:|-3---------------|-----------------|-----------------|-----------------| 
E:|---------3-------|-----------------|-3-------3-------|-----------------| 




    C/G                                 G 
e:|-----------------|-----------------|-----------------|-----------------| 
B:|---1-------1-----|-----------------|---0-------0-----|---0-------------| 
G:|-------0-------0-|--------%--------|-------0-------0-|-------0---------| 
D:|-----2-------2---|-----------------|-----0-------0---|-----0-----------| 
A:|-----------------|-----------------|-----------------|-----------------| 
E:|-3-------3-------|-----------------|-3-------3-------|-3--------3--2---| 


For the fifth verse ("Just later on ..."), return to $ and repeat, taking 
the first * jump and staying on Em to begin the final verse. 

For the final verse, return to $ and repeat, taking the first * jump, and  
then jump from % to the ending: 

%  Ending: 

    C                  C      D          G 
e:|-----------------|-----------------|-----------------| 
B:|---1-------1-----|----1------3-----|--0--------------| 
G:|-------0-------0-|-------------2---|--0--------------| 
D:|-----2-------2---|------2--0-------|--0--------------| 
A:|-3-------3-------|--3--------------|-----------------| 
E:|-----------------|-----------------|--3--------------| 


Lyrics: 

Couple in the next room, 
Bound to win a prize. 
They've been goin' at it all night long. 
Well, I'm trying to get some sleep, 
But these motel walls are cheap. 
Lincoln Duncan is my name and here's my song. 
Here's my song. 

My father was a fisherman. 
My mama was a fisherman's friend. 
And I was born in the boredom and the chowder. 
So when I reached my prime, 
I left my home in the Maritimes, 
Headed down the turnpike for New England, 
Sweet New England. 

Holes in my confidence, 
Holes in the knees of my jeans, 
I was left without a penny in my pocket. 
Ooo-oo-wee, I was about as destituted as a kid could be, 
And I wish I wore a ring so I could hock it. 
I'd like to hock it. 

A young girl in a parking lot was preaching to a crowd, 
Singing sacred songs and reading from the bible. 
Well, I told her I was lost, 
And she told me all about the Pentecost, 
And I seen that girl as the road to my survival. 

Just later on the very same night, 
She crept into my tent with a flashlight, 
And my long years of innocence were ended. 
Well, she took me to the woods, 
Saying, "Here comes somethin' and it feels so good," 
And just like a dog I was befriended. 
I was befriended. 

Oh, oh, what a night! 
Oh, what a garden of delight! 
Even now that sweet memory lingers. 
I was playing my guitar,  
Lying underneath the stars, 
Just thanking the Lord for my fingers, 
For my fingers.


The neck of my guitar





Comments


Popular Paul Simon tabs & chords
Boxer 2 Chords
Me And Julio Down By The Schoolyard Chords
Mother And Child Reunion 3 Chords
Papa Hobo Chords
Slip Sliding Away 2 Chords
The Only Living Boy In New York Chords
The Coast Tabs
Duncan Ukulele
For Emily Whenever I May Find Her Ukulele
Something So Right Ukulele


Song lyrics



↑ Back to top | Tablatures and chords are parodies/interpretations of the original songs. You may use it for private study, scholarship, research or language learning purposes only
© 2014 AZChords.com Contact us | Privacy policy | DMCA | Add/correct tabs | Request tabs | Top 50 tabs