» » »

Paul Revere And The Raiders, Him Or Me Chords (ver.1)

Artists:  A B C D E F G H I J K L M N O P Q R S T U V W X Y Z # 

Him Or Me Chords (ver.1)

Paul Revere And The Raiders Tabs
Rating:
5/5 (1 vote)
Him Or Me lessons Tabs too difficult? Try these video lessons and learn fast
                Him Or Me:Paul Revere and the Raiders.
#5 in 1967.

D7
Now, have you got yourself a brand new baby?

Don't tell me, maybe.
      C    D        G
Is it so...I got to know.
                C  D
What's it gonna be?
       G   C
Him or me..ee?
       G   C
Him or me..ee?
       G   C
Him or me..ee?
       G   C
Him or me..ee?

RIFF:

  -----------------------------------|
  -----------------------------------|
  --0--------------------------------|
  -----4----2---0-----------------0--|
  -----------------3---2--0----------|
  ----------------------------3------| (Back to D7)

#1.
G                           C             D
I can still recall when you told me I was all,
G              C               D
everything you looked for in a man.
      G
But I know that it's not true,
              C               D
I've seen the way he looks at you.
      A                  D           G
And I think you're gonna hang me up again.

CHORUS:
              D7
Now, have you got yourself a brand new baby?

Don't tell me, maybe.
      C    D        G
Is it so...I got to know.
                C   D
What's it gonna be?
       G   C
Him or me..ee?
       G   C
Him or me..ee?
       G   C
Him or me..ee?
       G   C
Him or me..ee?

RIFF:

  -----------------------------------|
  -----------------------------------|
  --0--------------------------------|
  -----4----2---0-----------------0--|
  -----------------3---2--0----------|
  ----------------------------3------| (Back to D7)


#2.

       G
So, if you would be so kind,
          C                   D
would you please make up your mind.
        G                 C            D
I won't share your lovin' with another man.
       G                                C
And if you see things my way, could you let me
       D
know today.
       A                         D         G
But if you decide it's him, I'll change my plans.


CHORUS:
              D7
Now, have you got yourself a brand new baby?

Don't tell me, maybe.
      C    D        G
Is it so...I got to know.
                C D
What's it gonna be?
       G   C
Him or me..ee?
       G   C
Him or me..ee?
       G   C
Him or me..ee?
       G   C
Him or me..ee?


RIFF:

  -----------------------------------|
  -----------------------------------|
  --0--------------------------------|
  -----4----2---0-----------------0--|
  -----------------3---2--0----------|
  ----------------------------3------| (Back to D7)

D7
Him or me..ee? Him or me..ee?
                               G
Him or me..ee? What's it gonna be? (x5 + Riff at the end
                                         of each 'What's it gonna be?')

RIFF:

  -----------------------------------|
  -----------------------------------|
  --0--------------------------------|
  -----4----2---0-----------------0--|
  -----------------3---2--0----------|
  ----------------------------3------| (Back to D7)

D7
Him or me..ee? Him or me..ee?
                               G
Him or me..ee? What's it gonna be? (x1 + Riff.) (fade)


A sixties smash from Kraziekhat.
            

comments powered by Disqus
↑ Back to top | Paul Revere And The Raiders Chords for Him Or Me. Lyrics for acoustic guitar and electric guitar. Tablatures and chords are parodies/interpretations of the original songs. You may use it for private study, scholarship, research or language learning purposes only