>
 >
No More Lonely Nights

No More Lonely Nights Guitar Tabs

Paul Mccartney - No More Lonely Nights chords, tabs, tablatures, lyrics

Guitar lessons | Add/correct | Request | Top 50 tabs Artists:  A B C D E F G H I J K L M N O P Q R S T U V W X Y Z 0-9

No More Lonely Nights Guitar Tabs – Paul Mccartney

CD, Sheet music, Poster

Do you like No More Lonely Nights? Share with your friends now
Bass TabsChordsChords v2TabsUkulele
Paul McCartney - No more Lonely Nights
                                                                   
E||------------------|-------------------------|------------------|
B||------------------|------------1--1---------|------------------|
G||------------------|------------------2-2--3-|------------------|
D||------------------|-------------------------|------------------|
A||------------------|------3--3---------------|------------------|
E||------------------|-------------------------|------------------|


                                                                        
-----------0-----3--1--|----------------------|---------1--0-----------|
--------1--------------|----3-----------------|---------------3--1-----|
-----------------------|---------------2-0----|---------------------3--|
-----------------------|-------------------3--|------------------------|
-----------------------|----------------------|------------------------|
-----------------------|----------------------|------------------------|


                                                                          
-----------------------|---------------------------|---------------------|
-----------------------|---------------------------|---------------------|
--2--2--3--2-----------|--2--0---------------------|---------------------|
---------------------0-|-------3--------0--3-------|---------------------|
-----------------------|-------------3-------------|---------------3--3--|
-----------------------|---------------------------|---------------------|


                                                                     
------------------------|-------------------|--0-----3--1-----------|
--1-1-------------------|----------------1--|----------------3------|
---------2--2-3---------|-------------------|-----------------------|
------------------------|-------------------|-----------------------|
------------------------|-------------------|-----------------------|
------------------------|-------------------|-----------------------|


                                                                        
----------------1--|--0-----------------------|------------------------|
-------------------|-----3--1-----------------|------------------------|
-------------------|-----------3--2--2--3--2--|-----------2--0---------|
-------------------|--------------------------|---------0------3-------|
-------------------|--------------------------|----------------------3-|
-------------------|--------------------------|------------------------|


                                                                    
-----------------------|---------------------|---------------3--1--|
-----------------------|---------------3--1--|---------------------|
-----------------2--0--|---------------------|---------------------|
--0-3------------------|---------------------|------------3--------|
--------------3--------|------------3--------|---------------------|
-----------------------|---------------------|---------------------|
                                                              
------------------|----1--1----1--3----5--|------------------|
------------------|-----------------------|------------------|
------------------|-----------------------|------------------|
------------------|-----------------------|------------------|
------------------|-----------------------|------------------|
------------------|-----------------------|------------------|


                                                                     
----1--1----1--4-3----1--|------------------|----1--1----1--3----5--|
-------------------------|------------------|-----------------------|
-------------------------|------------------|-----------------------|
-------------------------|------------------|-----------------------|
-------------------------|------------------|-----------------------|
-------------------------|------------------|-----------------------|


                                                                        
--------6-----5--3--1-1-|----5--3------------|-------------------------|
------------------------|--------------------|------------1-1----------|
------------------------|--------------------|------------------2--2-3-|
------------------------|--------------------|-------------------------|
------------------------|--------------------|------3--3---------------|
------------------------|--------------------|-------------------------|


                                                              
------------------|-----------0----3--1--|-------------------|
------------------|--------1-------------|----3--------------|
------------------|----------------------|-------------------|
------------------|----------------------|-------------------|
------------------|----------------------|-------------------|
------------------|----------------------|-------------------|


                                                                         
--------1--0-----------|-----------------------|------------------------|
--------------3--1-----|-----------------------|------------------------|
--------------------3--|--2--2--3--2-----------|--2--0------------------|
-----------------------|---------------------0-|-------3------0--3------|
-----------------------|-----------------------|-----------3------------|
-----------------------|-----------------------|------------------------|


                                                                  
---------------------|---------------------|-------3--1----------|
---------------------|-------3--1----------|---------------------|
-------2--0----------|---------------------|---------------------|
---------------------|---------------------|----3----------------|
----3----------------|----3----------------|---------------------|
---------------------|---------------------|---------------------|

                                                                      
------------1--1----|--1--3----5--------3-5-|--6-5-3--1------1--1----1-|
--------------------|-----------------------|--------------------------|
--------------------|-----------------------|--------------------------|
--------------------|-----------------------|--------------------------|
--------------------|-----------------------|--------------------------|
--------------------|-----------------------|--------------------------|
                                                                   
-----4-3--1-----------|------------1--1----1-|----3----5--------6---|
----------------------|----------------------|----------------------|
----------------------|----------------------|----------------------|
----------------------|----------------------|----------------------|
----------------------|----------------------|----------------------|
----------------------|----------------------|----------------------|


                                                                                
----5--3--1-1----5--3-----|----------0-1----1-1-1---|-----0--------0-----------|
--------------------------|--------3----------------|--------3--1-------1------|
--------------------------|-------------------------|----------------------0---|
--------------------------|-------------------------|--------------------------|
--------------------------|-------------------------|--------------------------|
--------------------------|-------------------------|--------------------------|


                                                                     
--------------------------|----------------------|------------------|
-------------------1------|----------------------|------------------|
-------0--2--3--------3---|-----2--0-------------|------------------|
--------------------------|----------------------|------------------|
--------------------------|----------------------|------------------|
--------------------------|----------------------|------------------|




                                                                  
------------------|----------------------|-----------------------|
------------------|----------------------|----------------3--1---|
------------------|---------------2--0---|-----------------------|
------------------|----------------------|-----------------------|
------------------|------------3---------|-------------3---------|
------------------|----------------------|-----------------------|


                                                                     
---------------3--1---|--------------------|----1--1----1--3----5---|
----------------------|--------------------|------------------------|
----------------------|--------------------|------------------------|
------------3---------|--------------------|------------------------|
----------------------|--------------------|------------------------|
----------------------|--------------------|------------------------|


                                                                          
---------3-5-6--5-3--1----|----1--1----1---4-3--1---|--------------------|
--------------------------|-------------------------|--------------------|
--------------------------|-------------------------|--------------------|
--------------------------|-------------------------|--------------------|
--------------------------|-------------------------|--------------------|
--------------------------|-------------------------|--------------------|


                                                                             
----1--1----1--3----5---|---------6-----5--3--1-1--|----5--3------------0-1-|
------------------------|--------------------------|------------------3-----|
------------------------|--------------------------|------------------------|
------------------------|--------------------------|------------------------|
------------------------|--------------------------|------------------------|
------------------------|--------------------------|------------------------|



                                                                                
-------1-1-1----0--------0-|-------------------------|-------------------------|
-------------------3--1----|-------1-----------------|-------1-----------------|
---------------------------|----------0------0--2--3-|----------3-----2--0-----|
---------------------------|-------------------------|-------------------------|
---------------------------|-------------------------|-------------------------|
---------------------------|-------------------------|-------------------------|


                                                                             
------------------0-1-|-------1-1-1-----0--------0-|------------------------|
----------------3-----|--------------------3--1----|------1-----------------|
----------------------|----------------------------|---------0------0--2--3-|
----------------------|----------------------------|------------------------|
----------------------|----------------------------|------------------------|
----------------------|----------------------------|------------------------|


                                                                            
-------------------------|-----------------1--3--3-|----1------------------|
-------1-----------------|-----------1--3----------|------------------3--1-|
----------3-----2--0-----|-------------------------|-----------------------|
-------------------------|-------------------------|-----------------------|
-------------------------|-------------------------|-----------------------|
-------------------------|-------------------------|-----------------------|


                     
-------------------||
-------------------||
-------------------||
-------------------||
-------------------||
-------------------||

If you like it please give a good rating cause it took me too long to get it right . 

Dedicated to a very special person .





Comments


Popular Paul Mccartney tabs & chords
Another Day Bass Tabs
Lunchbox Odd Sox Bass Tabs
About You Chords
Bogey Music Chords
Friends To Go Chords
My Valentine 3 Chords
Press Chords
End Of The End Ukulele
Feet In The Clouds Ukulele
Teddy Boy Ukulele


Song lyrics



↑ Back to top | Tablatures and chords are parodies/interpretations of the original songs. You may use it for private study, scholarship, research or language learning purposes only
© 2014 AZChords.com Contact us | Privacy policy | DMCA | Add/correct tabs | Request tabs | Top 50 tabs