» » »

Paul Mccartney, Crossroads Tabs (ver.1)

Artists:  A B C D E F G H I J K L M N O P Q R S T U V W X Y Z # 

Crossroads Tabs (ver.1)

Paul Mccartney Tabs
 Rating:
4/5 (4 votes)
Crossroads lessons Tabs too difficult? Try these video lessons and learn fast
                Crossroads Theme by Paul McCartney

Standard Tunning (E,A,D,g,b,e)

Tablature Legend
----------------
 h   - hammer-on
 p   - pull-off
 b   - bend
 pb  - pre-bend
 r   - bend release
 /\  - slide into or out of (from/to "nowhere")
 ~   - vibrato
 x   - on rhythm slash represents muted slash

The song is a guitar solo:

e|------------------------------------------------|
b|-9b-7-9b-7-9-----7b-5-7-7b-5-7b-5---------------|
g|----------------------------------6-7-----7-9-9b|
D|------------------------------------------------|
A|------------------------------------------------|
E|------------------------------------------------|

e|------------------------------------------------|
b|------------------------------------------------|
g|-7-9b-7-9-----7-6-7-7s9----6----7s9-7-----------|
D|----------9-9----------------7------------------|
A|------------------------------------------------|
E|------------------------------------------------|

e|------------------------------------------------|
b|------------9-7---------------------------------|
g|-7-7-9-9b-------9-7-9-----7-6-7-7s9--6---7b-7---|
D|----------------------9-9--------------7--------|
A|------------------------------------------------|
E|------------------------------------------------|

e|------------------------------------------------|
b|------------12s15-17-17b-17b-17b----------------|
g|-9-7-6-7-6--------------------------------------|
D|------------------------------------------------|
A|------------------------------------------------|
E|------------------------------------------------|

e|------------------------------------------------|
b|-17r-15-17-----------14b-14-15-15b-14----15b-15-|
g|------------16-16---------------------14--------|
D|------------------------------------------------|
A|------------------------------------------------|
E|------------------------------------------------|

e|--------15--15h17-15---12h14~~------------------|
b|-15h17------------------------------------------|
g|------------------------------------------------|
D|------------------------------------------------|
A|------------------------------------------------|
E|------------------------------------------------|

That is the whole song
Enjoy!
            
Submit corrections

comments powered by Disqus
↑ Back to top | Paul Mccartney Tabs for Crossroads. Lyrics for acoustic guitar and electric guitar. Tablatures and chords are parodies/interpretations of the original songs. You may use it for private study, scholarship, research or language learning purposes only