>
 >
Coming Up 3

Coming Up 3 Bass Tabs

Paul Mccartney - Coming Up 3 chords, tabs, tablatures, lyrics

Guitar lessons | Add/correct | Request | Top 50 tabs Artists:  A B C D E F G H I J K L M N O P Q R S T U V W X Y Z 0-9

Coming Up 3 Bass Tabs – Paul Mccartney

CD, Sheet music, Poster

Do you like Coming Up 3? Share with your friends now
Bass TabsBass Tabs v2Bass Tabs v3ChordsTabsUkulele
--------------------------------------------------------------

   PAUL McCARTNEY - COMING UP. Released as a single on April 
                    11th 1980 w COMING UP (LIVE)/ LUNCHBOX/
                    ODD SOX as B side.

--------------------------------------------------------------





   It seems that Paul wrote the song in the late 70's and 
   performed it with Wings on 1979, but he didn't release 
   it until his "solo" album, McCARTNEY II (1980), when he 
   di it as a single with the live version, recorded with 
   Wings during a concert in Glasgow in 1979 , as B side. 
   DJs began playing the live version and it was that which 
   hit number one. Paul & Linda are the only people in the 
   video and play all the band members roles (Paul adopted 
   the looks of, Buddy Holly, Frank Zappa and Ginger Baker 
   among others and also a 1964 Beatle version of himself. 
   It was a number one hit in the UK for two weeks from the
   31st May 1980.




You want a love to last forever
One that will never fade away
I want to help you with your problem
Stick around, I say

Coming up, coming up, yeah
Coming up like a flower
Coming up, I say

You want a friend you can rely on
One who will never fade away
And If you're searching for an answer
Stick around. I say

It's coming up, it's coming up
It's coming up like a flower
It's coming up. Yeah

You want some peace and understanding
So everybody can be free
I know that we can get together
We can make it, stick with me

It's coming up, it's coming up
It's coming up like a flower
It's coming up for you and me

Coming up, Coming up
It's coming up, it's coming up, I say
It's coming up like a flower
It's coming up
I feel it in my bones

You want a better kind of future
One that everyone can share
You're not alone, we all could use it
Stick around we're nearly there

It's coming cp, it's coming up everywhere
It's coming up like a flower
It's coming up for all to share
It's coming up, yeah
It's coming up, anyway
It's coming up like a flower
Coming up




       To match the recording you must tune yous bass 
       a half step down. 



  INTRO                                    


e|----8-8- 8-8-8--- 6---8--- 6---6---|----8-8- 8-8-8--- 6------- --------|
B|----8-8--8-8-8P6--6---8----6---8---|----8-8--8-8-8P6--6---8----6-------|
G|----8-8--8-8-8P6------8----6---8---|----8-8--8-8-8P6------8----6-------|
D|-----------------------------------|-----------------------------------|
A|-----------------------------------|-----------------------------------|
E|-----------------------------------|-----------------------------------|

e|-------- -------- 6------- --------|-------- -------- 6------- --------|
B|------------------6---8----6---8---|------------------6---8----6-------|
G|----------------------8----6---8---|----------------------8----6-------|
D|-----------------------------------|-----------------------------------|
A|-----------------------------------|-----------------------------------|
E|-----------------------------------|-----------------------------------|

G|-------- -------- -------- --------|-------- --------- ------- --------|
D|-----------------------------------|-----------------------------------|
A|-----------------------------------|-----------------------------------|
E|0------------0----0----------------|0-------------0----0---------------|




e|----8-8- 8-8-8--- 6------- --------|-------- -------- 6------- --------|
B|----8-8--8-8-8P6--6---8----6---8---|--8-8----8-8-8P6--6---8----6-------|
G|----8-8--8-8-8P6------8----6---8---|--8-8----8-8-8P6------8----6-------|
D|-----------------------------------|-----------------------------------|
A|-----------------------------------|-----------------------------------|
E|-----------------------------------|-----------------------------------|

e|-------- -------- 6------- --------|-------- -------- 6------- --------|
B|------------------6---8----6---8---|------------------6---8----6-------|
G|----------------------8----6---8---|----------------------8----6-------|
D|-----------------------------------|-----------------------------------|
A|-----------------------------------|-----------------------------------|
E|-----------------------------------|-----------------------------------|

G|-------- -------- -------- --------|-------- --------- ------- --------|
D|-----------------------------------|-----------------------------------|
A|-----------------------------------|-----------------------------------|
E|0------------0----0----------------|0-------------0----0---------------|



  00:07
e|-------- -------- 6------- --------|--8-8--- 8-8-8--- 6------- --------|
B|----8-8--8-8-8P6--6---8----6---8---|--8-8----8-8-8P6--6---8----6-------|
G|----8-8--8-8-8P6------8----6---8---|--8-8----8-8-8P6------8----6-------|
D|-----------------------------------|-----------------------------------|
A|-----------------------------------|-----------------------------------|
E|-----------------------------------|-----------------------------------|

e|-------- -------- 6------- --------|-------- -------- 6------- --------|
B|------------------6---8----6---8---|------------------6---8----6-------|
G|----------------------8----6---8---|----------------------8----6-------|
D|-----------------------------------|-----------------------------------|
A|-----------------------------------|-----------------------------------|
E|-----------------------------------|-----------------------------------|

G|-------- -------- -------- --------|-------- --------- ------- --------|
D|-----------------------------------|-----------------------------------|
A|-----------------------------------|-----------------------------------|
E|0------------0----0----------------|0-------------0----0---------------|





e|-------- -------- 6------- --------|--8-8--- 8-8-8--- 6------- --------|
B|----8-8--8-8-8P6--6---8----6---8---|--8-8----8-8-8P6--6---8----6-------|
G|----8-8--8-8-8P6------8----6---8---|--8-8----8-8-8P6------8----6-------|
D|-----------------------------------|-----------------------------------|
A|-----------------------------------|-----------------------------------|
E|-----------------------------------|-----------------------------------|

e|-------- -------- 6------- --------|-------- -------- 6------- --------|
B|------------------6---8----6---8---|------------------6---8----6-------|
G|----------------------8----6---8---|----------------------8----6-------|
D|-----------------------------------|-----------------------------------|
A|-----------------------------------|-----------------------------------|
E|-----------------------------------|-----------------------------------|

G|-------- -------- -------- --------|-------- --------- ------- ----9---|
D|-----------------------------------|-----------------------------------|
A|-----------------------------------|-----------------------------------|
E|0------------0----0----------------|0-------------0----0---------------|



  00:15
G|-------- -------- -------- --------|-------- --------- ------- ----9---|
D|-----------------------------------|-----------------------------------|
A|-----------------------------------|-----------------------------------|
E|0------------0----0----------------|0-------------0----0---------------|
      You  want a   love                  to   last forever 


G|-------- -------- -------- --------|-------- -------- -------- --------|
D|-----------------------------------|-----------------------------------|
A|-----------------------------------|---------------------------2-------|
E|0------------0----0----------------|0------------0----4----------------|
      One that will never                 fade away 


G|-------- -------- -------- ----9---|-------- --------- ------- --------|
D|-----------------------------------|-----------------------------------|
A|-----------------------------------|-----------------------------------|
E|0------------0----0----------------|0-------------0----0---------------|
      I    want to  help you              with your problem 

G|-------- -------- -------- --------|-------- -------- -------- --------|
D|-----------------------------------|-----------------------------------|
A|-----------------------------------|-----------------------------------|
E|0------------0----0----------------|---------0-------------------------|
     Stick around                I    say                   It's comin'  

  00:30
G|-------- -------- -------- --------|-------- -------- -------- --------|
D|-----------------------------------|-----------------------------------|
A|0-----------------2----------------|4-----------------5----------------|
E|-----------------------------------|-----------------------------------|
  up                                                        It's comin'
                                      Ooooooooooooooooooooooohhh

G|-------- -------- -------- --------|-------- -------- -------- --------|
D|-----------------------------------|-----------------------------------|
A|7----------------------------------|-----------------------------------|
E|-------------0----2----------------|3-----------------4----------------|
  up                                                        It's coming
                                 Yeah!

G|-------- -------- -------- --------|-------- -------- -------- --------|
D|-----------------------------------|-----------------------------------|
A|0-----------------2----------------|4------------5-------------6-------|
E|-----------------------------------|-----------------------------------|
  up                    like a   flower                     It's coming 


G|-------- -------- -------- --------|-------- -------- -------- --------|
D|-----------------------------------|-----------------------------------|
A|7----------------------------------|-----------------------------------|
E|-------------0----2----------------|3------------4-------------0-------|
  up


  00:44 ...

  00:48
  You want a friend 
  You can rely on 
  One who will never fade away 
  I know you're searching for an answer 
  Stick around i say 

  01:03
  It's comin' up 
  It's comin' up 
                                                            It's coming

  01:10
G|-------- -------- -------- --------|-------- -------- -------- --------|
D|-----------------------------------|-----------------------------------|
A|0-----------------2------------2---|4------------4----5--------6-------|
E|-----------------------------------|-----------------------------------|
  up                    like a flower 
                                                            It's comin' 

G|-------- -------- -------- --------|-------- -------- -------- --------|
D|-----------------------------------|-----------------------------------|
A|7----------------------------------|-----------------------------------|
E|-------------0----2------------2---|3------------3----4----------------|
  up                             Yeah! 


  01:17 INSTRUMENTAL PART
G|-------- -------- -------- --------|-------- -------- -------- ----9---|
D|-----------------------------------|-----------------------------------|
A|-----------------------------------|-----------------------------------|
E|0------------0----0----------------|0------------0----0----------------|


  
  01:21
e|-------- -------- 11------ --------|-------- -------- 11------ --------|
B|----1313-13131311-11--13---11--13--|----1313-13131311-11--13---11------|
G|----1313-13131311-----13---11--13--|----1313-13131311----------11------|
D|---------------P-------------------|---------------P-------------------|
A|-----------------------------------|-----------------------------------|
E|-----------------------------------|-----------------------------------|
  
G|-------- -------- -------- ----9---|-------- -------- -------- ----9---|    
D|-----------------------------------|-----------------------------------|
A|0------------0----0----------------|0------------x----0----------------|
E|-----------------------------------|-----------------------------------|




e|-------- -------- 11------ --------|-------- -------- 11------ --------|
B|----1313-13131311-11--13---11--13--|----1313-13131311-11--13---11------|
G|----1313-13131311-----13---11--13--|----1313-13131311----------11------|
D|---------------P-------------------|---------------P-------------------|
A|-----------------------------------|-----------------------------------|
E|-----------------------------------|-----------------------------------|

G|-------- ----9--- -------- 11------|----13-- ----14-- ----15-- 16\-----|
D|-----------------------------------|-----------------------------------|
A|0----------------------------------|-----------------------------------|
E|------------------7------------9---|---------10-------11-------12\-----|


  01:29  ...

  01:36
  You want some peace and understanding
  So everybody can be free
  I know that we can get together
                                                                   
                                                                   We can 
  01:47
G|-------- -------- -------- --------|----9--- -------9/12\----- --------|
D|-----------------------------------|-----------------------------------|
A|-----------------------------------|-----------------------------------|
E|0------------0----0----------------|0------------0-------------0-------|
  make it,                       stick    with me           It's coming

  01:51
G|-------- 9------- -------- 11------|-------- 13------ -------- 14------|
D|-----------------------------------|-----------------------------------|
A|0------------0---------------------|-----------------------------------|
E|------------------7------------7---|9------------9----10-----------10--|
  up                                                        It's coming
                                 Woooooooooooohhh

G|-------- 16------ -------- 18------|-------- 19------ ----20\- --------|
D|-----------------------------------|-----------------------------------|
A|-----------------------------------|-----------------------------------|
E|12-----------12---14-----------14--|15-----------15---16---------------|
  up                                                       It's coming



  01:58
  up like a flower
  It's coming up for you and me

  02:05  Instrumenal part
                                                       
  02:37
  It's coming up
  It's coming up, I say
  It's coming up like a flower
  It's coming up
  I feel it in my bones
  Yeah yeah yeah yeah

  You want a better kind of future
  One that everyone can share
  You're not alone, we all could use it
  Stick around we're nearly there

  03:14
  It's coming up
  It's coming up everywhere
  It's coming up like a flower
  It's coming up for all to share
  It's coming up, yeah
  It's coming up, anyway
  03:36
  It's coming up like a flower
  Coming up






        B  Bend
        R  Release
        /  Slide up
        \  Slide down
        H  Hammer-on
        P  Pull-off
        ~  Vibrato
        +  Harmonic
        x  Mute note
        .  Play note like a dot in standard notation
        ^  Ties two notes together
        (. Pause





Comments


Popular Paul Mccartney tabs & chords
All My Loving Chords
Ballroom Dancing Chords
Dance Tonight 1 Chords
Dear Boy Chords
Freedom Chords
From A Lover To A Friend Chords
Junk 2 Tabs
Oh Woman Oh Why Tabs
My Carnival Ukulele
Nod Your Head Ukulele


Song lyrics



↑ Back to top | Tablatures and chords are parodies/interpretations of the original songs. You may use it for private study, scholarship, research or language learning purposes only
© 2014 AZChords.com Contact us | Privacy policy | DMCA | Add/correct tabs | Request tabs | Top 50 tabs