» » »

Paul Mccartney, Coming Up Bass tabs (ver.1)

Artists:  A B C D E F G H I J K L M N O P Q R S T U V W X Y Z # 

Coming Up Bass tabs (ver.1)

Paul Mccartney Tabs
Rating:
0/5 (0 votes)
Coming Up lessons Tabs too difficult? Try these video lessons and learn fast
                COMING UP

INTRO

G|---------------------------------|---------------------------------|
D|---------------------------------|---------------------------------|
A|---------------------------------|---------------------------------|
E|-0-----------0---0---------------|-0-----------0---0---------------|

G|---------------------------------|---------------------------------|
D|---------------------------------|---------------------------------|
A|---------------------------------|---------------------------------|
E|-0-----------0---0---------------|-0-----------0---0---------------|

G|---------------------------------|---------------------------------|
D|---------------------------------|---------------------------------|
A|---------------------------------|---------------------------------|
E|-0-----------0---0---------------|-0-----------0---0---------------|

G|---------------------------------|-----------------------------9---|
D|---------------------------------|---------------------------------|
A|---------------------------------|---------------------------------|
E|-0-----------0---0---------------|-0-----------0---0---------------|

VERSE

G|---------------------------------|-----------------------------9---|
D|---------------------------------|---------------------------------|
A|---------------------------------|---------------------------------|
E|-0-----------0---0---------------|-0-----------0---0---------------|

G|---------------------------------|---------------------------------|
D|---------------------------------|---------------------------------|
A|---------------------------------|-------------------------2-------|
E|-0-----------0---0---------------|-0-----------0---4---------------|

G|-----------------------------9---|---------------------------------|
D|---------------------------------|---------------------------------|
A|---------------------------------|---------------------------------|
E|-0-----------0---0---------------|-0-----------0---0---------------|

G|---------------------------------|---------------------------------|
D|---------------------------------|---------------------------------|
A|---------------------------------|---------------------------------|
E|-0-----------0---0---------------|---------0-----------------------|

CHORUS

G|---------------------------------|---------------------------------|
D|---------------------------------|---------------------------------|
A|-0---------------2---------------|-4---------------5---------------|
E|---------------------------------|---------------------------------|

G|---------------------------------|---------------------------------|
D|---------------------------------|---------------------------------|
A|-7-------------------------------|---------------------------------|
E|-------------0---2---------------|-3---------------4---------------|

G|---------------------------------|---------------------------------|
D|---------------------------------|---------------------------------|
A|-0---------------2---------------|-4-----------5-----------6-------|
E|---------------------------------|---------------------------------|

G|---------------------------------|---------------------------------|
D|---------------------------------|---------------------------------|
A|-7-------------------------------|---------------------------------|
E|-------------0---2---------------|-3-----------4-----------0-------|

INTERLUDE

G|---------------------------------|---------------------------------|
D|---------------------------------|---------------------------------|
A|---------------------------------|---------------------------------|
E|-0-----------0---0---------------|-0-----------0---0---------------|

VERSE

G|---------------------------------|-----------------------------9---|
D|---------------------------------|---------------------------------|
A|---------------------------------|---------------------------------|
E|-0-----------0---0---------------|-0-----------0---0---------------|

G|---------------------------------|---------------------------------|
D|---------------------------------|---------------------------------|
A|---------------------------------|-------------------------2-------|
E|-0-----------0---0---------------|-0-----------0---4---------------|

G|---------------------------------|-------9-------------------------|
D|---------------------------------|---------------------------------|
A|---------------------------------|-------------------------2-------|
E|-0-----------0---0---------------|-0---------------4---------------|

G|---------------------------------|---------------------------------|
D|---------------------------------|---------------------------------|
A|---------------------------------|---------------------------------|
E|-0-----------0---0---------------|-0-------0-----------------------|

CHORUS

G|---------------------------------|---------------------------------|
D|---------------------------------|---------------------------------|
A|-0---------------2---------------|-4---------------5-------5-------|
E|---------------------------------|---------------------------------|

G|---------------------------------|---------------------------------|
D|---------------------------------|---------------------------------|
A|-7-------------------------------|---------------------------------|
E|-----------------2---------------|-3-----------4-------------------|

G|---------------------------------|---------------------------------|
D|---------------------------------|---------------------------------|
A|-0---------------2-----------2---|-4-----------4---5-------6-------|
E|---------------------------------|---------------------------------|

G|---------------------------------|---------------------------------|
D|---------------------------------|---------------------------------|
A|-7-------------------------------|---------------------------------|
E|-------------0---2-----------2---|-3-----------3---4---------------|

SOLO

G|---------------------------------|-----------------------------9---|
D|---------------------------------|---------------------------------|
A|---------------------------------|---------------------------------|
E|-0-----------0---0---------------|-0-----------0---0---------------|

G|-----------------------------9---|-----------------------------9---|
D|---------------------------------|---------------------------------|
A|-0-----------0---0---------------|-0-----------X---0---------------|
E|---------------------------------|---------------------------------|

G|-------------9-----------11------|-----13------14------15--16\-----|
D|---------------------------------|---------------------------------|
A|-0-------------------------------|---------------------------------|
E|-----------------7-----------9---|---------10------11------12\-----|

INTERLUDE

G|---------------------------------|---------------------------------|
D|---------------------------------|---------------------------------|
A|---------------------------------|---------------------------------|
E|-0-----------0---0---------------|-0-----------0---0---------------|

G|---------------------------------|---------------------------------|
D|---------------------------------|---------------------------------|
A|---------------------------------|---------------------------------|
E|-0-----------0---0---------------|-0-----------0---0---------------|

VERSE

G|---------------------------------|-------------------------9-------|
D|---------------------------------|---------------------------------|
A|---------------------------------|---------------------------------|
E|-0-----------0---0---------------|-0-----------0---0---------------|

G|---------------------------------|-------9-------------------------|
D|---------------------------------|---------------------------------|
A|---------------------------------|-------------------------2-------|
E|-0-----------0---0---------------|-0---------------4---------------|

G|---------------------------------|-------------------------9-------|
D|---------------------------------|---------------------------------|
A|---------------------------------|---------------------------------|
E|-0-----------0---0---------------|-0-----------0---0---------------|

G|---------------------------------|-----9---------9/12\-------------|
D|---------------------------------|---------------------------------|
A|---------------------------------|---------------------------------|
E|-0-----------0---0---------------|-0-----------0-----------0-------|

CHORUS

G|---------9---------------11------|---------13--------------14------|
D|---------------------------------|---------------------------------|
A|-0-----------0-------------------|---------------------------------|
E|-----------------7-----------7---|-9-----------9---10----------10--|

G|---------16--------------18------|---------19----------20\---------|
D|---------------------------------|---------------------------------|
A|---------------------------------|---------------------------------|
E|-12----------12--14----------14--|-15----------15--16--------------|

G|---------9---------------11------|---------13--------------14------|
D|---------------------------------|---------------------------------|
A|-0-----------0-------------------|---------------------------------|
E|-----------------7-----------7---|-9-----------9---10----------10--|

G|---------16--------------18------|---------19----------20\---------|
D|---------------------------------|---------------------------------|
A|---------------------------------|---------------------------------|
E|-12----------12--14----------14--|-15----------15--16--------------|

SOLO

G|---------------------------------|-----------------------------9---|
D|---------------------------------|---------------------------------|
A|---------------------------------|---------------------------------|
E|-0---------------0---------------|-0---------------0---------------|

G|---------------------------------|---------------------------------|
D|---------------------------------|---------------------------------|
A|---------------------------------|---------------------------------|
E|-0---------------0---------------|-0---------------0---------------|

G|---------------------------------|---------------------------------|
D|---------------------------------|---------------------------------|
A|-0---------------0---------------|-0---0-----------0---------------|
E|---------------------------------|---------------------------------|

G|---------------------------------|---------------------------------|
D|---------------------------------|---------------------------------|
A|---------------------------------|---------------------------------|
E|-0---------------0---------------|-0---0-----------0---------------|

G|---------------------------------|---------------------------------|
D|---------------------------------|---------------------------------|
A|---------------------------------|---------------------------------|
E|-0---------------0---------------|-0---0-----------0---------------|

INTERLUDE

G|---------------------------------|-------------------------9-------|
D|---------------------------------|---------------------------------|
A|---------------------------------|---------------------------------|
E|-0-----------0---0---------------|-0-----------0---0---------------|

G|---------------------------------|-------------------------9-------|
D|---------------------------------|---------------------------------|
A|---------------------------------|---------------------------------|
E|-0-----------0---0---------------|-0-----------0---0---------------|

G|---------------------------------|---------------------------------|
D|---------------------------------|---------------------------------|
A|---------------------------------|---------------------------------|
E|-0-----------0---0---------------|-0-----------0---0---------------|

G|-----------------9---------------|
D|---------------------------------|
A|---------------------------------|
E|-0-----------0-------------------|

CHORUS

G|-------------------------11------|---------13--------------14------|
D|-7-------------------------------|---------------------------------|
A|-------------0-------------------|---------------------------------|
E|-----------------7-----------7---|-9-----------9---10----------10--|

G|---------16--------------18------|---------19----------20\---------|
D|---------------------------------|---------------------------------|
A|---------------------------------|---------------------------------|
E|-12----------12--14----------14--|-15----------15--16--------------|

G|---------9---------------11------|---------13--------------14------|
D|---------------------------------|---------------------------------|
A|-0-----------0-------------------|---------------------------------|
E|-----------------7-----------7---|-9-----------9---10----------10--|

G|---------16--------------18------|---------19----------20\---------|
D|---------------------------------|---------------------------------|
A|---------------------------------|---------------------------------|
E|-12----------12--14----------14--|-15----------15--16--------------|

INTERLUDE

G|---------------------------------|---------------------------------|
D|---------------------------------|---------------------------------|
A|---------------------------------|---------------------------------|
E|-0-----------0---0---------------|-0-----------0---0---------------|

G|---------------------------------|-------9-------------------------|
D|---------------------------------|---------------------------------|
A|---------------------------------|---------------------------------|
E|-0-----------0---0---------------|-0-----------0---0---------------|

VERSE

G|---------------------------------|---------------------------------|
D|---------------------------------|---------------------------------|
A|---------------------------------|-------------------------2-------|
E|-0-----------0---0---------------|-0---0-------0---4---------------|

G|-----------------------9---------|-------9-------------------------|
D|---------------------------------|---------------------------------|
A|---------------------------------|--------------------------2------|
E|-0-----------0---0---------------|-0---------------4---------------|

G|-----------------------9---------|-------9-------------------------|
D|---------------------------------|---------------------------------|
A|---------------------------------|--------------------------2------|
E|-0-----------0---0---------------|-0-----------0---4---------------|

G|-----------------------9---------|-------9---14\-------------------|
D|---------------------------------|---------------------------------|
A|---------------------------------|---------------------------------|
E|-0-----------0---0---------------|-0-------------------------------|

CHORUS

G|---------9-----------------------|---------13--------------14------|
D|---------------------------------|---------------------------------|
A|-0-----------0-------------------|---------------------------------|
E|-----------------7-----------7---|-9-----------9---10----------10--|

G|---------16--------------18------|---------19----------20\---------|
D|---------------------------------|---------------------------------|
A|---------------------------------|---------------------------------|
E|-12----------12--14----------14--|-15----------15--16--------------|

G|-------------------------11------|---------13--------------14------|
D|---------------------------------|---------------------------------|
A|-0-----------0-------------------|---------------------------------|
E|-----------------7-----------7---|-9-----------9---10----------10--|

G|---------16--------------18------|---------19----------20\---------|
D|---------------------------------|---------------------------------|
A|---------------------------------|---------------------------------|
E|-12----------12--14----------14--|-15----------15--16--------------|

OUTRO

G|---------9---------------11------|---------13--------------14------|
D|---------------------------------|---------------------------------|
A|-0-----------0-------------------|---------------------------------|
E|-----------------7-----------7---|-9-----------9---10----------10--|

G|---------16--------------18------|---------19--20\-----------------|
D|---------------------------------|---------------------------------|
A|---------------------------------|---------------------------------|
E|-12----------12--14----------14--|-15------------------------------|

G|---------------------------------|---------------------------------|
D|---------------------------------|---------------------------------|
A|-0---------------2---------------|-4---------------5---------------|
E|---------------------------------|---------------------------------|

G|---------------------------------|---------------------------------|
D|-----------------7---7-----------|---------------------------------|
A|---------------------------------|---------------------------------|
E|---------------------------------|-----------------0---0-----------|
            

comments powered by Disqus
↑ Back to top | Paul Mccartney Bass for Coming Up. Lyrics for acoustic guitar and electric guitar. Tablatures and chords are parodies/interpretations of the original songs. You may use it for private study, scholarship, research or language learning purposes only