>
 >
Blue Jean Bop

Blue Jean Bop Guitar Tabs

Paul Mccartney - Blue Jean Bop chords, tabs, tablatures, lyrics

Guitar lessons | Add/correct | Request | Top 50 tabs Artists:  A B C D E F G H I J K L M N O P Q R S T U V W X Y Z 0-9

Blue Jean Bop Guitar Tabs – Paul Mccartney

CD, Sheet music, Poster

Do you like Blue Jean Bop? Share with your friends now
Bass TabsChordsTabsUkulele
  -------------------------------------------------------------

  PAUL McCARTNEY - BLUE JEAN BOP (Vincent/Levy). From RUN DEVIL
                   RUN album. Released on October 5th, 1999. 
   
  -------------------------------------------------------------




 

  Bluejean baby, with your big blue eyes 
  Don`t want you looking at other guys 
  Got to make you give me, one more chance 
  I can`t keep still, so baby let`s dance. Well 

  Bluejean bop is the bop for me 
  It`s the bop that`s done in a dungaree 
  You dip your hip, you free your knee. Well 
  Squeel on your heel baby, one two three. Well 
  Bluejean bop, bluejean bop, Oh baby 
  Bluejean bop, bluejean bop, Oh baby 
  Bluejean bop, baby won`t you bop with me. 
  (Gasp)
               SOLO 1
    
                                     Well
  Well Bluejean baby when I bop with you.
  Well my heart starts hoppin' like a kangaroo. 
  My feet do things they never done before 
  Well bluejean baby, give me more more more 
  Bluejean bop, bluejean bop, Oh baby
  Bluejean bop, bluejean bop, Oh baby
  Bluejean bop, baby won`t you bop with me,  
  Yeah! Rock again

               SOLO 2

  Well bluejean bop, bluejean bop, Oh baby
  Bluejean bop, bluejean bop, Oh baby
  Bluejean bop, baby won`t you bop with me. Yeah
  

  Bluejean bop, bluejean bop, Oh baby
  Bluejean bop, bluejean bop, Oh baby
  Bluejean bop, baby won`t you bop with Gene. 



                         * * *




    Bluejean baby, with your big blue eyes 
    Don`t want you looking at other guys 
    Got to make you give me, one more chance 
    I can`t keep still, so baby let`s dance. Well 

    00:23
    Bluejean bop is the bop for me 
    It`s the bop that`s done in a dungaree 
    You dip your hip, you free your knee 
    Well squeel on your heel baby, one two three. Well 
    Bluejean bop, bluejean bop, Oh baby, 
    Bluejean bop, bluejean bop, Oh baby, 
    Bluejean bop, baby won`t you bop with me. 
    (Gasp) 

                              
    SOLO 1
    00:43

  e|5----5- 5----5- 5----5- 5----5-|5----5- 5----5- 5----5- 5----5-|
  B|4H5--5--4H5--5--4----5--4----5-|4----5--4----5--4H5--5--4H5--5-|
  G|-------------------------------|-------------------------------|
  D|-------------------------------|-------------------------------|
  A|-------------------------------|-------------------------------|
  E|-------------------------------|-------------------------------|



  e|5----5- 5----5- 5----5- 5----5-|5----5- 5----5- 5------ 5----8-|
  B|4H5--5--4H5--5--4H5--5--4H5--5-|4H5--5--4H5--5--4H5----------7-|
  G|-------------------------------|-------------------------------|
  D|-------------------------------|-------------------------------|
  A|-------------------------------|-------------------------------|
  E|-------------------------------|-------------------------------|



  e|------- 5----5- 5------ 5----8-|------- 5------ 5------ 5----8-|
  B|--------5----5--5-------5----7-|----------------5-------5----7-|
  G|-------------------------------|-------------------------------|
  D|-------------------------------|-------------------------------|
  A|-------------------------------|-------------------------------|
  E|-------------------------------|-------------------------------|



  e|------- 5----5- 5------ 5------|5----5- 5----5- -----5- -----5-|
  B|--------5-------5----5--7------|5-------7----5-------5-------5-|
  G|-------------------------------|-------------------------------|
  D|-------------------------------|-------------------------------|
  A|-------------------------------|-------------------------------|
  E|-------------------------------|-------------------------------|



  e|------- ------- 5----5- -----5-|7B8--5- 7---7B8R7----5- -------|
  B|7B8-----7-------5----5-------5-|---------------------5--7------|
  G|------------------------7------|-------------------------------|
  D|-------------------------------|-------------------------------|
  A|-------------------------------|-------------------------------|
  E|-------------------------------|-------------------------------|



  e|5------ -----5- ------- -------|-----5- ------- -----5- -------|
  B|5----5--7----5----------------5|-----5--7-----5------5---------|
  G|----------------7B8R7P5-7-----5H6-------7-----5H6--------------|
  D|-------------------------------|-------------------------------|
  A|-------------------------------|-------------------------------|
  E|-------------------------------|-------------------------------|
                                                         Well    Blue


    0:58
     jean baby when I bop with you. 
    Well my heart starts hoppin` like a kangaroo 
    My feet do things they never done before 
    Well bluejean baby, give me more more more 


    01:08

  e|------- ------- ------- -------|------- ------- ------- -------|
  B|-------------------------------|-------------------------------|
  G|----------------2-------4----2-|----------------2----2--4----2-|
  D|0-------4----------------------|0-------4----------------------|
  A|-------------------------------|-------------------------------|
  E|-------------------------------|-------------------------------|
    Blue    jean    bop,            blue    jean    bop, Oh baby 


  e|------- ------- ------- -------|------- ------- ------- -------|
  B|-------------------------------|-------------------------------|
  G|-------------------------------|-------------------------------|
  D|----------------2-------4----2-|----------------2----2--4------|
  A|0-------4----------------------|0----0--4----------------------|
  E|-------------------------------|-------------------------------|
    Bluejean        boop         Blue       jean    bop  Oh baby


  e|------- ------- ------- -------|------- ------- ------- -------|
  B|-------------------------------|-------------------------------|
  G|----------------4-------6----4-|----------------2-------4----2-|
  D|2----2--6----------------------|0-------4----------------------|
  A|-------------------------------|-------------------------------|
  E|-------------------------------|-------------------------------|
    Blue    jean    bop          baby       won`t   bop     with me
                                                  you


  e|------- ------- ------- -------|------- ------- ------0 -------|
  B|-------------------------------|----------------------4/5------|
  G|-------------------------------|-------------------------------|
  D|----------------2-------4------|-----0-------------------------|
  A|0-------4----------------------|0-------3B4--------------------|
  E|-------------------------------|-------------------------------|
                 Yeah!                           Rock    again!


    SOLO 2
    01:18

  e|5------ -----5- ------- -------|------- -----5- ------- -------|
  B|5------------5-----------------|------5H7----5-----------------|
  G|------------------------7-----5H6---------------------5H6------|
  D|-------------------------------|-------------------------------|
  A|-------------------------------|-------------------------------|
  E|-------------------------------|-------------------------------|



  e|5----5- -----5- ------- -------|------- ------- ------- -------|
  B|5----5-------5-----------------|------5H7----7B8--------7------|
  G|------------------------7-----5H6------------------------------|
  D|-------------------------------|-------------------------------|
  A|-------------------------------|-------------------------------|
  E|-------------------------------|-------------------------------|


                                                             
  e|------- ------- ------- -------|------- ------- ------- x----0-|
  B|7H10P7-------------------------|-----------------------(12)----|
  G|--------7H9P7------------------|-------------------------------|
  D|----------------7H9P7----------|-------------------------------|
  A|------------------------7H9P7-\|5----5-------5-----------------|
  E|-------------------------------|-------------------------------|



  e|-----12 ------0 -----12 -----12|-----12 ------- \----x- -----7-|
  B|-----13------13B14---13B14---13B14---13B14------\----x---------|
  G|-------------------------------|-------------------------------|
  D|-------------------------------|-------------------------------|
  A|-------------------------------|-------------------------------|
  E|-------------------------------|-------------------------------|



  e|-----7- 7------ ------- -----7-|-----7- 7------ ------- -----5-|
  B|--------8B9--------------------|--------8B9------------------5-|
  G|----------------9-------9------|----------------9-------7------|
  D|-------------------------------|-------------------------------|
  A|-------------------------------|-------------------------------|
  E|-------------------------------|-------------------------------|



  e|-----5- ------- 5----5- -------|8P7P5-- ------- ------- -------|
  B|-----5----------5----5---------|--------8P7P5------------------|
  G|--------7---------------7------|----------------8P7P5----------|
  D|-------------------------------|------------------------7----5/|
  A|-------------------------------|-------------------------------|
  E|-------------------------------|-------------------------------|
                                                         Well    Blue       


    01:34

  e|------- ------- ------- -------|------- ------- ------- -------|
  B|-------------------------------|-------------------------------|
  G|----------------2-------4----2-|----------------2----2--4------|
  D|7-------4----------------------|0-------4----------------------|
  A|-------------------------------|-------------------------------|
  E|-------------------------------|-------------------------------|
            jean    bop             blue    jean    bop, Oh baby 


  e|------- ------- ------- -------|------- ------- ------- -------|
  B|-------------------------------|-------------------------------|
  G|-------------------------------|-------------------------------|
  D|----------------2-------4----2-|----------------2-------4------|
  A|0----0--4----------------------|0-------4----------------------|
  E|-------------------------------|-------------------------------|
    Bluejean        bop             Blue    jean    bop  Oh baby


  e|------- ------- ------- -------|------- ------- ------- -------|
  B|-------------------------------|-------------------------------|
  G|----------------4----4--6------|----------------2----2--4----2-|
  D|2-------6----------------------|0-------4----4-----------------|
  A|-------------------------------|-------------------------------|
  E|-------------------------------|-------------------------------|
    Blue    jean    bop          baby       won`t   bop     with me
                                                  you

  e|------- ------- ------- -------|------- ------- ------- -------|
  B|-------------------------------|-------------------------------|
  G|-------------------------------|2------------------------------|
  D|----------------2-------4------|----------------2-------4------|
  A|0-------4----------------------|--------4----------------------|
  E|-------------------------------|-------------------------------|
                                         Yeah                    Blue

    01:44

  e|------- ------- ------- -------|------- ------- ------- -------|
  B|-------------------------------|-------------------------------|
  G|----------------2-------4----2-|----------------2----2--4----2-|
  D|0-------4----------------------|0-------4----------------------|
  A|-------------------------------|-------------------------------|
  E|-------------------------------|-------------------------------|
            jean    bop             Blue    jean    bop  Oh baby
  e|5------ ------- ------- -------|------- ------- ------- -------|
  B|5------------------------------|-------------------------------|
  G|5------------------------------|-------------------------------|
  D|4------------------------------|-------------------------------|
  A|5------------------------------|-------------------------------|
  E|-------------------------------|-------------------------------|
    D9


  e|------- ------- ------- -------|------- ------- ------- -------|
  B|-------------------------------|-------------------------------|
  G|-------------------------------|-------------------------------|
  D|----------------2-------4----2-|----------------0-------1------|
  A|0-------4----------------------|0----0--4----------------------|
  E|-------------------------------|-------------------------------|
    Bluejean        boop            Blue    jean    bop  Oh baby
  e|7------ ------- ------- -------|------- ------- ------- -------|
  B|7------------------------------|-------------------------------|
  G|6------------------------------|-------------------------------|
  D|7------------------------------|-------------------------------|
  A|-------------------------------|-------------------------------|
  E|-------------------------------|-------------------------------|
    Aadd9/6


  e|------- ------- ------- -------|------- ------- ------- -------|
  B|-------------------------------|-------------------------------|
  G|----------------4----4--6------|----------------2-------4------|
  D|2-------6----------------------|0-------4----4-----------------|
  A|-------------------------------|-------------------------------|
  E|-------------------------------|-------------------------------|
    Blue    jean    bop          baby       won`t   bop     with Gene
                                                  you
  e|7------ ------- ------- -------|5------ ------- ------- -------|
  B|7------------------------------|5------------------------------|
  G|7------------------------------|5------------------------------|
  D|6------------------------------|4------------------------------|
  A|7------------------------------|5------------------------------|
  E|-------------------------------|-------------------------------|
    E9                              D9                     
                                                (.

  e|------- ------- ------- -------|------- ------- ------- -------|
  B|-------------------------------|-------------------------------|
  G|-------------------------------|2------------2-----------------|
  D|----------------2-------4------|-------------------------------|
  A|0-------4----------------------|-------------------------------|
  E|-------------------------------|-------------------------------|








        B  Bend
        R  Release
        /  Slide up
        \  Slide down
        H  Hammer-on
        P  Pull-off
        ~  Vibrato
        +  Harmonic
        x  Mute note
        .  Play note like a dot in standard notation
        ^  Ties two notes together
        (. Pause





Comments


Popular Paul Mccartney tabs & chords
Maybe Im Amazed Bass Tabs
About You Chords
Honey Hush Chords
Bring It On Home To Me Ukulele
Dance Tonight Ukulele
Deliver Your Children Ukulele
Dress Me Up As A Robber Ukulele
Fool On The Hill Ukulele
Good Times Coming Feel The Sun Ukulele
Jenny Wren Ukulele


Song lyrics



↑ Back to top | Tablatures and chords are parodies/interpretations of the original songs. You may use it for private study, scholarship, research or language learning purposes only
© 2014 AZChords.com Contact us | Privacy policy | DMCA | Add/correct tabs | Request tabs | Top 50 tabs