» » »

Blackbird Tabs (ver.2)

Artists:  A B C D E F G H I J K L M N O P Q R S T U V W X Y Z # 

Blackbird Tabs (ver.2)

Paul Mccartney
Rating:
0/5 (0 votes)

Hard to play? Try these video lessons and learn fast.
                                         Blackbird
                                                           Paul McCartney

Full Song

rit=ritard(Slow down)    This song uses finger picking, so the fingerings are different 
you dont play that type. It is still playable if you don’t know how, but it isnt the 
form. I recommend listening to a recording of this song before trying to play 
because of the rhythm.

E----------------------------------------------------------------------------|
B-0-----1-------3-------12------------12-------12----------12-------0--------|
G----0-----0--------0-------0------0------0----------0----------0-------0----|
D----------------------------------------------------------------------------|
A-------0-------2-------10-----10--------------10----------10----------------|
E-3-----------------------------------------------------------------3--------|

E-----------------------------------------------------------------------------|
B-----1-------3-------12------------12-------12----------12-------------------|
G---------0--------0-------0------0------0----------0----------0--------------|
D-----------------------------------------------------------------------------|
A-----0-------2-------10-----10--------------10----------10-------------------|
E-----------------------------------------------------------------------------|


E--------3--------------5-----------------------------------------------------|
B-5--------------7--------------8-----------8--------8-------------8----------|
G-----0-----0-------0-------0------0-----0-----0---------0-----0------0-------|
D-----------------------------------------------------------------------------|
A-3------4-------5------6-------7-----7--------------6------6-----------------|
E-----------------------------------------------------------------------------|

E--------3-------------------------------------------------------------------|
B-7-------------5----------5---------4-------------4------3----------3-------|
G----0------0------0----0-----0----------0-----0------0-------0----0----0----|
D----------------------------------------------------------------------------|
A-5------4------3----3---------------3------3-------------2-----2------------|
E----------------------------------------------------------------------------|


E-----------------------------------0----0-----------------------------------|
B-2----------2------1--------1---------0-------5------3------2--------2------|
G----0----0-----0------0---0---0------------------0------0-----0---0----0----|
D-------------------0----0---------------------------------------------------|
A-0----0---------------------------------------3------2------0---0-----------|
E-----------------------------------3----3-----------------------------------|


E----------------------------------------------------------------------------|
B-1-------1-----0---0-----0-----1------3-------12----------12-----12---12----|
G---0---0----0----0----------0-----0------0--------0----0------0-----0-------|
D-0---0----------------------------------------------------------------------|
A-------------------------------0------2-------10----10-----------10---10----|
E---------------3---3-----3--------------------------------------------------|


E-----3---------5--------------------------------------------3----------------|
B-5-------7---------8-------8------8---------8--------7------------5-------5--|
G---0---0----0----0---0---0---0-------0----0----0--------0-----0------0--0--0-|
D-----------------------------------------------------------------------------|
A-3---4---5-----6---7---7----------6-----6------------5------4-----3---3------|
E-----------------------------------------------------------------------------|


E----------------------------------------------------------------------------|
B-4--------4------3-------3------2-------2-----1--------1-----0-----0--------|
G----0---0---0------0---0---0------0---0---0------0---0---0------0-----------|
D----------------------------------------------0----0------------------------|
A-3----3----------2---2----------0---0---------------------------------------|
E-------------------------------------------------------------3-----3--------|


E----------------------------------------------------------------------------|
B-10---8---6----5---3-------3----5--------5----10----8----6-----5----3-------|
G----0---0---0----0---0---0---0-----0---0---0-----0----0-----0----0----0---0-|
D----------------------------------------------------------------------------|
A-8----7---5----3---1---1--------3----3--------8-----7----5-----3----1---1---|
E----------------------------------------------------------------------------|


E-----------------------------------------------------------------------------|
B-3----2--------2--1-------1-----0-----1----3----12--------12---12---------12-|
G---0------0---0------0---0---0-----0----0----0-----0----0----0----0----0-----|
D-----------------0----0------------------------------------------------------|
A------0----0--------------------------0----2----10---10--------10---10-------|
E--------------------------------3--------------------------------------------|


                        rit
E-----------------------------------------------------------------------------|
B---12--------12----12----------12----12-----12----12------12-------12\-------|
G-0----0----0----0------0-----0----0------0-----0-----0-----------------------|
D-----------------------------------------------------------------------------|
A---10---10---------------10----------10-----10----10------10-------10\-------|
------------------------------------------------------------------------------|

E----------------------------------------------------------------------------|
B-0----1------3------5-----3----2-----1---------1-----0-------1-----3--------|
G---0-----0------0------0----0-----0-----0---0----0------0-------0-----0-----|
D----------------------------------------------------------------------------|
A------0------2------3-----2----0-----0----0------------------0-----2--------|
E-3---------------------------------------------------3----------------------|


E-------------------------------------------3----------5---------------------|
B-12---------12------12-----12--------5-----------7-----------8--------8-----|
G----0----0------0-------0------0--------0-----0-----0----0------0---0---0---|
D----------------------------------------------------------------------------|
A-10---10------------10-----10--------3-----4-----5----6------7----7---------|
E----------------------------------------------------------------------------|


E--------------------3-------------------------------------------------------|
B-8-------------7-----------5----------5----4---------4-----3-------3--------|
G---0---0----0----0----0-------0-----0---0-----0----0----0----0---0----0-----|
D----------------------------------------------------------------------------|
A-6---6---------5----4------3-----3---------3-----3---------2---2------------|
E----------------------------------------------------------------------------|

E----------------------------------------------------------------------------|
B-2---------2------1---------1----0-----0----5-----3----2--------2-----------|
G----0---0----0-------0---0----0-----0----------0----0-----0---0---0---------|
D----------------------------------------------------------------------------|
A-0----0-----------0----0--------------------3-----2----0----0---------------|
E---------------------------------3-----3------------------------------------|


E----------------------------------------------------------------------------|
B-1--------1----0---0-----5-----3-----2-------2----1--------1----0-----------|
G---0----0---0----0----------0-----0----0---0---0-----0---0---0-----0--------|
D-0----0-------------------------------------------0----0--------------------|
A-------------------------3-----2-----0---0----------------------------------|
E---------------3---3--------------------------------------------3-----------|
            
Hard to play? Try these video lessons and learn fast. | Correct




comments powered by Disqus
↑ Back to top | Tablatures and chords are parodies/interpretations of the original songs. You may use it for private study, scholarship, research or language learning purposes only